  0
SECTION
  2
HEADER
  9
$INSBASE
 10
0.00000000
 20
0.00000000
 30
0.00000000
  9
$EXTMIN
 10
-1234.80060971
 20
-44.55002747
  9
$EXTMAX
 10
4384.79648983
 20
4499.55277405
  9
$LIMMIN
 10
-1234.80060971
 20
-44.55002747
  9
$LIMMAX
 10
4384.79648983
 20
4499.55277405
  9
$ANGBASE
 50
0.000
  9
$ANGDIR
 70
     0
  9
$HANDLING
 70
     0
  0
ENDSEC
  0
SECTION
  2
TABLES
  0
TABLE
  2
LTYPE
 70
     9
  0
LTYPE
  2
CONTINUOUS
 70
    64
  3
Solid line
 72
    65
 73
     0
 40
0.000
  0
LTYPE
  2
PUNKT
 70
    64
  3
..............
 72
    65
 73
     2
 40
2.000
 49
0.500
 49
-1.500
  0
LTYPE
  2
VERDECKT
 70
    64
  3
-- -- -- -- --
 72
    65
 73
     2
 40
7.000
 49
4.000
 49
-3.000
  0
LTYPE
  2
CONTINUOUS
 70
    64
  3
--.--.--.--.--
 72
    65
 73
     4
 40
8.500
 49
4.000
 49
-2.000
 49
0.500
 49
-2.000
  0
LTYPE
  2
STRICHPUNKT2
 70
    64
  3
--.--.--.--.--
 72
    65
 73
     4
 40
18.500
 49
10.000
 49
-4.000
 49
0.500
 49
-4.000
  0
LTYPE
  2
STRICHPUNKT3
 70
    64
  3
--.--.--.--.--
 72
    65
 73
     4
 40
35.500
 49
25.000
 49
-5.000
 49
0.500
 49
-5.000
  0
LTYPE
  2
PHANTOM
 70
    64
  3
--..--..--..--
 72
    65
 73
     6
 40
23.000
 49
10.000
 49
-4.000
 49
0.500
 49
-4.000
 49
0.500
 49
-4.000
  0
LTYPE
  2
PHANTOM2
 70
    64
  3
--..--..--..--
 72
    65
 73
     6
 40
33.000
 49
20.000
 49
-4.000
 49
0.500
 49
-4.000
 49
0.500
 49
-4.000
  0
LTYPE
  2
PHANTOM3
 70
    64
  3
--..--..--..--
 72
    65
 73
     6
 40
50.000
 49
37.000
 49
-4.000
 49
0.500
 49
-4.000
 49
0.500
 49
-4.000
  0
ENDTAB
  0
TABLE
  2
LAYER
 70
     6
  0
LAYER
  2
0
 70
    64
 62
     7
  6
CONTINUOUS
  0
LAYER
  2
LAY_999
 70
    64
 62
     7
  6
CONTINUOUS
  0
LAYER
  2
1
 70
    64
 62
     7
  6
CONTINUOUS
  0
LAYER
  2
2
 70
    64
 62
     7
  6
CONTINUOUS
  0
LAYER
  2
10
 70
    64
 62
     7
  6
CONTINUOUS
  0
LAYER
  2
49
 70
    64
 62
     7
  6
CONTINUOUS
  0
ENDTAB
  0
ENDSEC
  0
SECTION
  2
BLOCKS
  0
BLOCK
  8
0
  2
BEM_0001
 70
    64
 10
1099.59211069
 20
3741.32104613
  3
BEM_0001
  0
LINE
  8
49
 62
     4
 10
1099.59211069
 20
3921.32103831
 11
1099.59211069
 21
3741.32104613
  0
LINE
  8
49
 62
     4
 10
1099.59211069
 20
3891.32103831
 11
1137.09211069
 21
3897.32103831
  0
LINE
  8
49
 62
     4
 10
1137.09211069
 20
3897.32103831
 11
1137.09211069
 21
3885.32103831
  0
LINE
  8
49
 62
     4
 10
1137.09211069
 20
3885.32103831
 11
1099.59211069
 21
3891.32103831
  0
LINE
  8
49
 62
     4
 10
1135.96711069
 20
3891.32103831
 11
1100.71711069
 21
3891.32103831
  0
LINE
  8
49
 62
     4
 10
1135.96711069
 20
3889.07103831
 11
1114.77961069
 21
3889.07103831
  0
LINE
  8
49
 62
     4
 10
1135.96711069
 20
3893.57103831
 11
1114.77961069
 21
3893.57103831
  0
LINE
  8
49
 62
     4
 10
1135.96711069
 20
3886.82103831
 11
1128.84211069
 21
3886.82103831
  0
LINE
  8
49
 62
     4
 10
1135.96711069
 20
3895.82103831
 11
1128.84211069
 21
3895.82103831
  0
LINE
  8
49
 62
     4
 10
1569.59211069
 20
3921.32103831
 11
1569.59211069
 21
3741.32104613
  0
LINE
  8
49
 62
     4
 10
1569.59211069
 20
3891.32103831
 11
1532.09211069
 21
3885.32103831
  0
LINE
  8
49
 62
     4
 10
1532.09211069
 20
3885.32103831
 11
1532.09211069
 21
3897.32103831
  0
LINE
  8
49
 62
     4
 10
1532.09211069
 20
3897.32103831
 11
1569.59211069
 21
3891.32103831
  0
LINE
  8
49
 62
     4
 10
1533.21711069
 20
3891.32103831
 11
1568.46711069
 21
3891.32103831
  0
LINE
  8
49
 62
     4
 10
1533.21711069
 20
3893.57103831
 11
1554.40461069
 21
3893.57103831
  0
LINE
  8
49
 62
     4
 10
1533.21711069
 20
3889.07103831
 11
1554.40461069
 21
3889.07103831
  0
LINE
  8
49
 62
     4
 10
1533.21711069
 20
3895.82103831
 11
1540.34211069
 21
3895.82103831
  0
LINE
  8
49
 62
     4
 10
1533.21711069
 20
3886.82103831
 11
1540.34211069
 21
3886.82103831
  0
LINE
  8
49
 62
     4
 10
1137.09211069
 20
3891.32103831
 11
1532.09211069
 21
3891.32103831
  0
TEXT
  8
49
 62
     2
 10
1274.23351169
 20
3913.82103831
 40
52.50000000
  1
470
 50
0.000000000
 41
0.812
 51
0.000000000
  7
STANDARD
  0
ENDBLK
  8
0
  0
BLOCK
  8
0
  2
BEM_0002
 70
    64
 10
1569.59211069
 20
1646.32092503
  3
BEM_0002
  0
LINE
  8
49
 62
     4
 10
1787.09210091
 20
1646.32092503
 11
1569.59211069
 21
1646.32092503
  0
LINE
  8
49
 62
     4
 10
1757.09210091
 20
1646.32092503
 11
1751.09210091
 21
1683.82092503
  0
LINE
  8
49
 62
     4
 10
1751.09210091
 20
1683.82092503
 11
1763.09210091
 21
1683.82092503
  0
LINE
  8
49
 62
     4
 10
1763.09210091
 20
1683.82092503
 11
1757.09210091
 21
1646.32092503
  0
LINE
  8
49
 62
     4
 10
1757.09210091
 20
1682.69592503
 11
1757.09210091
 21
1647.44592503
  0
LINE
  8
49
 62
     4
 10
1759.34210091
 20
1682.69592503
 11
1759.34210091
 21
1661.50842503
  0
LINE
  8
49
 62
     4
 10
1754.84210091
 20
1682.69592503
 11
1754.84210091
 21
1661.50842503
  0
LINE
  8
49
 62
     4
 10
1761.59210091
 20
1682.69592503
 11
1761.59210091
 21
1675.57092503
  0
LINE
  8
49
 62
     4
 10
1752.59210091
 20
1682.69592503
 11
1752.59210091
 21
1675.57092503
  0
LINE
  8
49
 62
     4
 10
1787.09210091
 20
3741.32104613
 11
1569.59211069
 21
3741.32104613
  0
LINE
  8
49
 62
     4
 10
1757.09210091
 20
3741.32104613
 11
1763.09210091
 21
3703.82104613
  0
LINE
  8
49
 62
     4
 10
1763.09210091
 20
3703.82104613
 11
1751.09210091
 21
3703.82104613
  0
LINE
  8
49
 62
     4
 10
1751.09210091
 20
3703.82104613
 11
1757.09210091
 21
3741.32104613
  0
LINE
  8
49
 62
     4
 10
1757.09210091
 20
3704.94604613
 11
1757.09210091
 21
3740.19604613
  0
LINE
  8
49
 62
     4
 10
1754.84210091
 20
3704.94604613
 11
1754.84210091
 21
3726.13354613
  0
LINE
  8
49
 62
     4
 10
1759.34210091
 20
3704.94604613
 11
1759.34210091
 21
3726.13354613
  0
LINE
  8
49
 62
     4
 10
1752.59210091
 20
3704.94604613
 11
1752.59210091
 21
3712.07104613
  0
LINE
  8
49
 62
     4
 10
1761.59210091
 20
3704.94604613
 11
1761.59210091
 21
3712.07104613
  0
LINE
  8
49
 62
     4
 10
1757.09210091
 20
1683.82092503
 11
1757.09210091
 21
3703.82104613
  0
TEXT
  8
49
 62
     2
 10
1734.59210091
 20
2612.13424342
 40
52.50000000
  1
2095
 50
90.000000000
 41
0.812
 51
0.000000000
  7
STANDARD
  0
ENDBLK
  8
0
  0
BLOCK
  8
0
  2
BEM_0003
 70
    64
 10
1601.74792698
 20
1582.22092503
  3
BEM_0003
  0
LINE
  8
49
 62
     4
 10
1901.98952628
 20
1582.22092503
 11
1601.74792698
 21
1582.22092503
  0
LINE
  8
49
 62
     4
 10
1871.98952628
 20
1582.22092503
 11
1865.98952629
 21
1619.72092503
  0
LINE
  8
49
 62
     4
 10
1865.98952629
 20
1619.72092503
 11
1877.98952629
 21
1619.72092502
  0
LINE
  8
49
 62
     4
 10
1877.98952629
 20
1619.72092502
 11
1871.98952628
 21
1582.22092503
  0
LINE
  8
49
 62
     4
 10
1871.98952629
 20
1618.59592503
 11
1871.98952628
 21
1583.34592503
  0
LINE
  8
49
 62
     4
 10
1874.23952629
 20
1618.59592503
 11
1874.23952628
 21
1597.40842503
  0
LINE
  8
49
 62
     4
 10
1869.73952629
 20
1618.59592503
 11
1869.73952628
 21
1597.40842503
  0
LINE
  8
49
 62
     4
 10
1876.48952629
 20
1618.59592502
 11
1876.48952629
 21
1611.47092502
  0
LINE
  8
49
 62
     4
 10
1867.48952629
 20
1618.59592503
 11
1867.48952629
 21
1611.47092503
  0
LINE
  8
49
 62
     4
 10
1901.98952728
 20
3778.22092503
 11
1609.48954097
 21
3778.22092503
  0
LINE
  8
49
 62
     4
 10
1871.98952728
 20
3778.22092503
 11
1877.98952726
 21
3740.72092502
  0
LINE
  8
49
 62
     4
 10
1877.98952726
 20
3740.72092502
 11
1865.98952726
 21
3740.72092503
  0
LINE
  8
49
 62
     4
 10
1865.98952726
 20
3740.72092503
 11
1871.98952728
 21
3778.22092503
  0
LINE
  8
49
 62
     4
 10
1871.98952727
 20
3741.84592503
 11
1871.98952728
 21
3777.09592503
  0
LINE
  8
49
 62
     4
 10
1869.73952727
 20
3741.84592503
 11
1869.73952727
 21
3763.03342503
  0
LINE
  8
49
 62
     4
 10
1874.23952727
 20
3741.84592503
 11
1874.23952727
 21
3763.03342503
  0
LINE
  8
49
 62
     4
 10
1867.48952727
 20
3741.84592503
 11
1867.48952727
 21
3748.97092503
  0
LINE
  8
49
 62
     4
 10
1876.48952727
 20
3741.84592502
 11
1876.48952727
 21
3748.97092502
  0
LINE
  8
49
 62
     4
 10
1871.98952629
 20
1619.72092503
 11
1871.98952726
 21
3740.72092503
  0
TEXT
  8
49
 62
     2
 10
1849.48952674
 20
2598.53418175
 40
52.50000000
  1
2196
 50
89.999999974
 41
0.812
 51
0.000000000
  7
STANDARD
  0
ENDBLK
  8
0
  0
BLOCK
  8
0
  2
BEM_0004
 70
    64
 10
1059.59211069
 20
3778.22092503
  3
BEM_0004
  0
LINE
  8
49
 62
     4
 10
1059.59211069
 20
4033.22091329
 11
1059.59211069
 21
3778.22092503
  0
LINE
  8
49
 62
     4
 10
1059.59211069
 20
4003.22091329
 11
1097.09211069
 21
4009.22091329
  0
LINE
  8
49
 62
     4
 10
1097.09211069
 20
4009.22091329
 11
1097.09211069
 21
3997.22091329
  0
LINE
  8
49
 62
     4
 10
1097.09211069
 20
3997.22091329
 11
1059.59211069
 21
4003.22091329
  0
LINE
  8
49
 62
     4
 10
1095.96711069
 20
4003.22091329
 11
1060.71711069
 21
4003.22091329
  0
LINE
  8
49
 62
     4
 10
1095.96711069
 20
4000.97091329
 11
1074.77961069
 21
4000.97091329
  0
LINE
  8
49
 62
     4
 10
1095.96711069
 20
4005.47091329
 11
1074.77961069
 21
4005.47091329
  0
LINE
  8
49
 62
     4
 10
1095.96711069
 20
3998.72091329
 11
1088.84211069
 21
3998.72091329
  0
LINE
  8
49
 62
     4
 10
1095.96711069
 20
4007.72091329
 11
1088.84211069
 21
4007.72091329
  0
LINE
  8
49
 62
     4
 10
1609.48954097
 20
4033.22091329
 11
1609.48954097
 21
3778.22092503
  0
LINE
  8
49
 62
     4
 10
1609.48954097
 20
4003.22091329
 11
1571.98954097
 21
3997.22091329
  0
LINE
  8
49
 62
     4
 10
1571.98954097
 20
3997.22091329
 11
1571.98954097
 21
4009.22091329
  0
LINE
  8
49
 62
     4
 10
1571.98954097
 20
4009.22091329
 11
1609.48954097
 21
4003.22091329
  0
LINE
  8
49
 62
     4
 10
1573.11454097
 20
4003.22091329
 11
1608.36454097
 21
4003.22091329
  0
LINE
  8
49
 62
     4
 10
1573.11454097
 20
4005.47091329
 11
1594.30204097
 21
4005.47091329
  0
LINE
  8
49
 62
     4
 10
1573.11454097
 20
4000.97091329
 11
1594.30204097
 21
4000.97091329
  0
LINE
  8
49
 62
     4
 10
1573.11454097
 20
4007.72091329
 11
1580.23954097
 21
4007.72091329
  0
LINE
  8
49
 62
     4
 10
1573.11454097
 20
3998.72091329
 11
1580.23954097
 21
3998.72091329
  0
LINE
  8
49
 62
     4
 10
1097.09211069
 20
4003.22091329
 11
1571.98954097
 21
4003.22091329
  0
TEXT
  8
49
 62
     2
 10
1268.68326098
 20
4025.72091329
 40
52.50000000
  1
550
 50
0.000000000
 41
0.812
 51
0.000000000
  7
STANDARD
  0
ENDBLK
  8
0
  0
BLOCK
  8
0
  2
BEM_0005
 70
    64
 10
2112.62601392
 20
3779.24605129
  3
BEM_0005
  0
LINE
  8
49
 62
     4
 10
2112.62601392
 20
3921.32103334
 11
2112.62601392
 21
3779.24605129
  0
LINE
  8
49
 62
     4
 10
2112.62601392
 20
3891.32103334
 11
2075.12601520
 21
3897.32104135
  0
LINE
  8
49
 62
     4
 10
2075.12601520
 20
3897.32104135
 11
2075.12601263
 21
3885.32104135
  0
LINE
  8
49
 62
     4
 10
2075.12601263
 20
3885.32104135
 11
2112.62601392
 21
3891.32103334
  0
LINE
  8
49
 62
     4
 10
2076.25101392
 20
3891.32104111
 11
2111.50101392
 21
3891.32103358
  0
LINE
  8
49
 62
     4
 10
2076.25101440
 20
3893.57104111
 11
2097.43851440
 21
3893.57103658
  0
LINE
  8
49
 62
     4
 10
2076.25101344
 20
3889.07104111
 11
2097.43851344
 21
3889.07103658
  0
LINE
  8
49
 62
     4
 10
2076.25101488
 20
3895.82104111
 11
2083.37601488
 21
3895.82103959
  0
LINE
  8
49
 62
     4
 10
2076.25101296
 20
3886.82104111
 11
2083.37601296
 21
3886.82103959
  0
LINE
  8
49
 62
     4
 10
2075.12601392
 20
3891.32104135
 11
2015.12601392
 21
3891.32105418
  0
LINE
  8
49
 62
     4
 10
2129.08953941
 20
3921.32102982
 11
2129.08953941
 21
3775.74605129
  0
LINE
  8
49
 62
     4
 10
2129.08953941
 20
3891.32102982
 11
2166.58953813
 21
3885.32102180
  0
LINE
  8
49
 62
     4
 10
2166.58953813
 20
3885.32102180
 11
2166.58954069
 21
3897.32102180
  0
LINE
  8
49
 62
     4
 10
2166.58954069
 20
3897.32102180
 11
2129.08953941
 21
3891.32102982
  0
LINE
  8
49
 62
     4
 10
2165.46453941
 20
3891.32102204
 11
2130.21453941
 21
3891.32102958
  0
LINE
  8
49
 62
     4
 10
2165.46453893
 20
3889.07102204
 11
2144.27703893
 21
3889.07102657
  0
LINE
  8
49
 62
     4
 10
2165.46453989
 20
3893.57102204
 11
2144.27703989
 21
3893.57102657
  0
LINE
  8
49
 62
     4
 10
2165.46453845
 20
3886.82102204
 11
2158.33953845
 21
3886.82102356
  0
LINE
  8
49
 62
     4
 10
2165.46454037
 20
3895.82102204
 11
2158.33954037
 21
3895.82102356
  0
LINE
  8
49
 62
     4
 10
2166.58953941
 20
3891.32102180
 11
2291.90047834
 21
3891.32099500
  0
LINE
  8
49
 62
     4
 10
2112.62601392
 20
3891.32103334
 11
2129.08953941
 21
3891.32102982
  0
TEXT
  8
49
 62
     2
 10
2213.83954600
 20
3915.47101191
 40
52.50000000
  1
16
 50
359.999987748
 41
0.812
 51
0.000000000
  7
STANDARD
  0
ENDBLK
  8
0
  0
BLOCK
  8
0
  2
H-395-8022-60-17-2D_00001
 70
    64
 10
0.00000000
 20
0.00000000
  3
H-395-8022-60-17-2D_00001
  0
INSERT
  8
0
  2
SEITENWAND__________00002
 10
0.00000000
 20
0.00000000
  0
ENDBLK
  0
BLOCK
  8
0
  2
SEITENWAND__________00002
 70
    64
 10
0.00000000
 20
0.00000000
  3
SEITENWAND__________00002
  0
INSERT
  8
0
  2
MASSEPUNKT__________00003
 10
1334.36195816
 20
1777.90651236
  0
INSERT
  8
0
  2
SEITENWAND_VA_______00004
 10
1601.74792698
 20
3774.72092503
  0
ENDBLK
  0
BLOCK
  8
0
  2
MASSEPUNKT__________00003
 70
    64
 10
1334.36195816
 20
1777.90651236
  3
MASSEPUNKT__________00003
  0
LINE
  8
1
 62
     2
 10
1334.36195816
 20
1777.90651236
 11
1334.36195816
 21
1762.64885391
  0
LINE
  8
1
 62
     2
 10
1349.72195816
 20
1762.64885391
 11
1319.00195816
 21
1762.64885391
  0
LINE
  8
1
 62
     2
 10
1337.93581563
 20
1747.28885391
 11
1330.78810070
 21
1747.28885391
  0
LINE
  8
1
 62
     2
 10
1343.82888690
 20
1754.96885391
 11
1324.89502943
 21
1754.96885391
  0
CIRCLE
  8
1
 62
     2
 10
1334.36195816
 20
1761.17313273
 40
20.21964410
  0
ENDBLK
  0
BLOCK
  8
0
  2
SEITENWAND_VA_______00004
 70
    64
 10
1601.74792698
 20
3774.72092503
  3
SEITENWAND_VA_______00004
  0
POLYLINE
  8
1
 66
     1
  0
VERTEX
  8
1
 10
1601.74792698
 20
3774.72092503
  0
VERTEX
  8
1
 10
1601.74792698
 20
1584.22092503
  0
VERTEX
  8
1
 10
1601.74792698
 20
3774.72092503
  0
VERTEX
  8
1
 10
1601.74792698
 20
3776.06031704
  0
VERTEX
  8
1
 10
1601.74792698
 20
3777.19579876
  0
VERTEX
  8
1
 10
1601.74792698
 20
3777.95450339
  0
VERTEX
  8
1
 10
1601.74792698
 20
3778.22092503
  0
VERTEX
  8
1
 10
1067.33372468
 20
3778.22092503
  0
VERTEX
  8
1
 10
1067.33372468
 20
3777.95450339
  0
VERTEX
  8
1
 10
1067.33372468
 20
3777.19579876
  0
VERTEX
  8
1
 10
1067.33372468
 20
3776.06031704
  0
VERTEX
  8
1
 10
1067.33372468
 20
3774.72092503
  0
VERTEX
  8
1
 10
1067.33372468
 20
1584.22092503
  0
VERTEX
  8
1
 10
1067.33372468
 20
3774.72092503
  0
SEQEND
  8
1
  0
POLYLINE
  8
1
 66
     1
  0
VERTEX
  8
1
 10
1067.33372468
 20
1594.72092503
  0
VERTEX
  8
1
 10
1067.33372468
 20
1584.22092503
  0
VERTEX
  8
1
 10
1067.33372468
 20
1583.45555816
  0
VERTEX
  8
1
 10
1067.33372468
 20
1582.80671147
  0
VERTEX
  8
1
 10
1067.33372468
 20
1582.37316596
  0
VERTEX
  8
1
 10
1067.33372468
 20
1582.22092503
  0
VERTEX
  8
1
 10
1601.74792698
 20
1582.22092503
  0
VERTEX
  8
1
 10
1601.74792698
 20
1582.37316596
  0
VERTEX
  8
1
 10
1601.74792698
 20
1582.80671147
  0
VERTEX
  8
1
 10
1601.74792698
 20
1583.45555816
  0
VERTEX
  8
1
 10
1601.74792698
 20
1584.22092503
  0
VERTEX
  8
1
 10
1601.74792698
 20
1594.72092503
  0
SEQEND
  8
1
  0
POLYLINE
  8
1
 66
     1
  0
VERTEX
  8
1
 10
1067.33372468
 20
1584.22092503
  0
VERTEX
  8
1
 10
1067.33372468
 20
1584.02958331
  0
VERTEX
  8
1
 10
1067.33372468
 20
1583.86737164
  0
VERTEX
  8
1
 10
1067.33372468
 20
1583.75898526
  0
VERTEX
  8
1
 10
1067.33372468
 20
1583.72092503
  0
SEQEND
  8
1
  0
POLYLINE
  8
1
 66
     1
  0
VERTEX
  8
1
 10
1601.74792698
 20
1584.22092503
  0
VERTEX
  8
1
 10
1601.74792698
 20
1584.02958331
  0
VERTEX
  8
1
 10
1601.74792698
 20
1583.86737164
  0
VERTEX
  8
1
 10
1601.74792698
 20
1583.75898526
  0
VERTEX
  8
1
 10
1601.74792698
 20
1583.72092503
  0
SEQEND
  8
1
  0
POLYLINE
  8
1
  6
VERDECKT
 62
     4
 66
     1
  0
VERTEX
  8
1
 10
1099.59211069
 20
3741.32104613
  0
VERTEX
  8
1
 10
1569.59211069
 20
3741.32104613
  0
VERTEX
  8
1
 10
1569.59211069
 20
1646.32092503
  0
VERTEX
  8
1
 10
1099.59211069
 20
1646.32092503
  0
VERTEX
  8
1
 10
1099.59211069
 20
3741.32104613
  0
SEQEND
  8
1
  0
POLYLINE
  8
1
 66
     1
  0
VERTEX
  8
1
 10
1059.59211069
 20
3778.22092503
  0
VERTEX
  8
1
 10
1059.59211069
 20
1591.02958331
 42
0.054641919
  0
VERTEX
  8
1
 10
1059.93745986
 20
1587.87890665
 42
0.055929981
  0
VERTEX
  8
1
 10
1060.29215270
 20
1586.84366971
 42
0.082376512
  0
VERTEX
  8
1
 10
1060.74013527
 20
1586.19750353
 42
0.202760957
  0
VERTEX
  8
1
 10
1061.13719566
 20
1586.02958331
  0
SEQEND
  8
1
  0
POLYLINE
  8
1
 66
     1
  0
VERTEX
  8
1
 10
1608.06360264
 20
1586.23390330
 42
0.146841312
  0
VERTEX
  8
1
 10
1608.34151639
 20
1586.38884525
 42
0.082376512
  0
VERTEX
  8
1
 10
1608.78949896
 20
1587.03501144
 42
0.055929981
  0
VERTEX
  8
1
 10
1609.14419181
 20
1588.07024836
 42
0.054641919
  0
VERTEX
  8
1
 10
1609.48954097
 20
1591.22092503
  0
VERTEX
  8
1
 10
1609.48954097
 20
3778.22092503
  0
SEQEND
  8
1
  0
ARC
  8
1
  6
VERDECKT
 62
     3
 10
1334.54082583
 20
1712.22092503
 40
3.23320625
 50
-90.000000000
 51
180.000000000
  0
CIRCLE
  8
1
 10
1079.54082583
 20
3651.32092503
 40
3.00000000
  0
CIRCLE
  8
1
 10
1079.54082583
 20
1701.32092503
 40
3.00000000
  0
CIRCLE
  8
1
 10
1589.54082583
 20
1701.32092503
 40
3.00000000
  0
CIRCLE
  8
1
 10
1079.54082583
 20
2476.32092503
 40
3.00000000
  0
CIRCLE
  8
1
 10
1589.54082583
 20
2476.32092503
 40
3.00000000
  0
CIRCLE
  8
1
 10
1589.54082583
 20
3651.32092503
 40
3.00000000
  0
CIRCLE
  8
1
  6
VERDECKT
 62
     3
 10
1334.54082583
 20
1712.22092503
 40
4.00000000
  0
CIRCLE
  8
1
  6
VERDECKT
 62
     3
 10
1334.54082583
 20
1712.22092503
 40
4.00000000
  0
LINE
  8
1
 10
1609.48954097
 20
3778.22092503
 11
1601.74792698
 21
3778.22092503
  0
LINE
  8
1
 10
1067.33372468
 20
3778.22092503
 11
1059.59211069
 21
3778.22092503
  0
ENDBLK
  0
BLOCK
  8
0
  2
BEM_________________00005
 70
    64
 10
1099.59211069
 20
3741.32104613
  3
BEM_________________00005
  0
INSERT
  8
49
  2
BEM_0001
 10
1099.59211069
 20
3741.32104613
 41
1.00000000
 42
1.00000000
 50
0.000000000
  0
INSERT
  8
49
  2
BEM_0002
 10
1569.59211069
 20
1646.32092503
 41
1.00000000
 42
1.00000000
 50
0.000000000
  0
INSERT
  8
49
  2
BEM_0003
 10
1601.74792698
 20
1582.22092503
 41
1.00000000
 42
1.00000000
 50
0.000000000
  0
INSERT
  8
49
  2
BEM_0004
 10
1059.59211069
 20
3778.22092503
 41
1.00000000
 42
1.00000000
 50
0.000000000
  0
LINE
  8
1
 10
1608.16001003
 20
1586.26463097
 11
1601.74792698
 21
1584.22092503
  0
LINE
  8
1
 10
1061.13719566
 20
1586.02958331
 11
1067.33372468
 21
1584.22092503
  0
INSERT
  8
49
  2
BEM_0005
 10
2112.62601392
 20
3779.24605129
 41
1.00000000
 42
1.00000000
 50
0.000000000
  0
ENDBLK
  0
BLOCK
  8
0
  2
TEXT________________00006
 70
    64
 10
291.08993943
 20
1164.67285027
  3
TEXT________________00006
  0
TEXT
  8
1
 62
     2
 10
291.08993943
 20
1164.67285027
 40
52.50000000
  1
Blechstärke:  1,50 mm
 50
0.000000000
 41
0.812
 51
0.000000000
  7
STANDARD
  0
TEXT
  8
1
 62
     2
 10
291.08993943
 20
1090.26183193
 40
52.50000000
  1
Oberfläche:   pulverlackiert RAL 7035
 50
0.000000000
 41
0.812
 51
0.000000000
  7
STANDARD
  0
TEXT
  8
1
 62
     2
 10
1248.73740277
 20
3402.85715092
 40
52.50000000
  1
Montage-
 50
0.000000000
 41
0.625
 51
0.000000000
  7
STANDARD
  0
TEXT
  8
1
 62
     2
 10
293.96605717
 20
1002.57452605
 40
52.50000000
  1
Masse:        Gewindebolzen M8 x 20
 50
0.000000000
 41
0.812
 51
0.000000000
  7
STANDARD
  0
TEXT
  8
1
 62
     2
 10
1270.84165096
 20
3337.45804861
 40
52.50000000
  1
fläche
 50
0.000000000
 41
0.625
 51
0.000000000
  7
STANDARD
  0
INSERT
  8
0
  2
MASSEPUNKT__________00007
 10
0.00000000
 20
0.00000000
  0
ENDBLK
  0
BLOCK
  8
0
  2
MASSEPUNKT__________00007
 70
    64
 10
0.00000000
 20
0.00000000
  3
MASSEPUNKT__________00007
  0
ENDBLK
  0
BLOCK
  8
0
  2
ANS3D01_____________00008
 70
    64
 10
0.00000000
 20
0.00000000
  3
ANS3D01_____________00008
  0
INSERT
  8
0
  2
FIG3D01_____________00009
 10
0.00000000
 20
0.00000000
  0
INSERT
  8
0
  2
FIG2D01_____________00010
 10
0.00000000
 20
0.00000000
  0
ENDBLK
  0
BLOCK
  8
0
  2
FIG3D01_____________00009
 70
    64
 10
0.00000000
 20
0.00000000
  3
FIG3D01_____________00009
  0
ENDBLK
  0
BLOCK
  8
0
  2
FIG2D01_____________00010
 70
    64
 10
0.00000000
 20
0.00000000
  3
FIG2D01_____________00010
  0
ENDBLK
  0
BLOCK
  8
0
  2
SEITENWAND_SA_______00011
 70
    64
 10
2126.67109889
 20
1584.22092503
  3
SEITENWAND_SA_______00011
  0
POLYLINE
  8
1
 66
     1
  0
VERTEX
  8
1
 10
2126.67109889
 20
1584.22092503
  0
VERTEX
  8
1
 10
2126.76510991
 20
1584.22092503
  0
VERTEX
  8
1
 10
2127.20757340
 20
1584.22092503
  0
VERTEX
  8
1
 10
2127.49165244
 20
1584.22092503
  0
VERTEX
  8
1
 10
2127.58953941
 20
1584.22092503
  0
SEQEND
  8
1
  0
ARC
  8
1
 10
2117.85540682
 20
1589.22092503
 40
5.22939290
 50
-180.000000000
 51
-154.008882584
  0
ARC
  8
1
 10
2117.60868389
 20
1589.10061368
 40
4.95489878
 50
-154.009130833
 51
-135.846311496
  0
ARC
  8
1
 10
2117.49838631
 20
1588.99352728
 40
4.80116832
 50
-135.846311496
 51
-117.410657932
  0
ARC
  8
1
 10
2117.38129650
 20
1588.76783992
 40
4.54691489
 50
-117.410083864
 51
-90.000000000
  0
LINE
  8
1
 10
2117.84482199
 20
1584.22092503
 11
2126.20757340
 21
1584.22092503
  0
POLYLINE
  8
1
 66
     1
  0
VERTEX
  8
1
 10
2129.08953941
 20
1584.22092503
  0
VERTEX
  8
1
 10
2128.91823722
 20
1584.22092503
  0
VERTEX
  8
1
 10
2128.42109889
 20
1584.22092503
  0
VERTEX
  8
1
 10
2127.64678779
 20
1584.22092503
  0
VERTEX
  8
1
 10
2126.67109889
 20
1584.22092503
  0
VERTEX
  8
1
 10
2126.20757340
 20
1584.22092503
  0
SEQEND
  8
1
  0
LINE
  8
1
 10
2129.08953941
 20
1584.22092503
 11
2129.08953941
 21
3775.74605129
  0
POLYLINE
  8
1
 66
     1
  0
VERTEX
  8
1
 10
2117.84482199
 20
1584.22092503
  0
VERTEX
  8
1
 10
2117.38129650
 20
1584.22092503
  0
SEQEND
  8
1
  0
ARC
  8
1
 10
2117.38129650
 20
1588.76783992
 40
4.54691489
 50
-117.410083864
 51
-90.000000000
  0
ARC
  8
1
 10
2117.49838631
 20
1588.99352728
 40
4.80116832
 50
-135.846311496
 51
-117.410657932
  0
ARC
  8
1
 10
2117.60868389
 20
1589.10061368
 40
4.95489878
 50
-154.009130833
 51
-135.846311496
  0
ARC
  8
1
 10
2117.85540682
 20
1589.22092503
 40
5.22939290
 50
180.000000000
 51
-154.008882584
  0
LINE
  8
1
 10
2126.67109889
 20
1584.22092503
 11
2117.84482199
 21
1584.22092503
  0
LINE
  8
1
 10
2126.67109889
 20
1584.22092503
 11
2126.67109889
 21
3777.69605129
  0
LINE
  8
1
 10
2112.62601392
 20
1589.22092503
 11
2112.62601392
 21
3779.24605129
  0
POLYLINE
  8
1
 66
     1
  0
VERTEX
  8
1
 10
2129.08953941
 20
3775.74605129
  0
VERTEX
  8
1
 10
2128.82311777
 20
3777.08544331
  0
VERTEX
  8
1
 10
2128.06441314
 20
3778.22092503
  0
VERTEX
  8
1
 10
2126.92893142
 20
3778.97962966
  0
VERTEX
  8
1
 10
2125.58953941
 20
3779.24605129
  0
VERTEX
  8
1
 10
2112.62601392
 20
3779.24605129
  0
SEQEND
  8
1
  0
LINE
  8
1
 10
2126.58953941
 20
1584.22092503
 11
2125.08953941
 21
1584.22092503
  0
POLYLINE
  8
1
 66
     1
  0
VERTEX
  8
1
 10
2129.08953941
 20
1584.22092503
  0
VERTEX
  8
1
 10
2128.93729847
 20
1583.45555816
  0
VERTEX
  8
1
 10
2128.50375297
 20
1582.80671146
  0
VERTEX
  8
1
 10
2127.85490627
 20
1582.37316596
  0
VERTEX
  8
1
 10
2127.08953941
 20
1582.22092503
  0
VERTEX
  8
1
 10
2126.32417254
 20
1582.37316596
  0
VERTEX
  8
1
 10
2125.67532585
 20
1582.80671146
  0
VERTEX
  8
1
 10
2125.24178034
 20
1583.45555816
  0
VERTEX
  8
1
 10
2125.08953941
 20
1584.22092503
  0
VERTEX
  8
1
 10
2126.58953941
 20
1584.22092503
  0
VERTEX
  8
1
 10
2126.62759964
 20
1584.02958331
  0
VERTEX
  8
1
 10
2126.73598602
 20
1583.86737164
  0
VERTEX
  8
1
 10
2126.89819769
 20
1583.75898526
  0
VERTEX
  8
1
 10
2127.08953941
 20
1583.72092503
  0
VERTEX
  8
1
 10
2127.28088113
 20
1583.75898526
  0
VERTEX
  8
1
 10
2127.44309280
 20
1583.86737164
  0
VERTEX
  8
1
 10
2127.55147918
 20
1584.02958331
  0
VERTEX
  8
1
 10
2127.58953941
 20
1584.22092503
  0
VERTEX
  8
1
 10
2127.64678779
 20
1584.22092503
  0
VERTEX
  8
1
 10
2127.58953941
 20
1584.22092503
  0
SEQEND
  8
1
  0
LINE
  8
1
 10
2129.08953941
 20
1584.22092503
 11
2129.08953941
 21
3775.74605129
  0
LINE
  8
1
 10
2129.08953941
 20
3642.34605129
 11
2129.08953941
 21
3662.34605129
  0
LINE
  8
1
 10
2129.08953941
 20
3642.34605129
 11
2129.08953941
 21
3662.34605129
  0
LINE
  8
1
 10
2129.08953941
 20
2367.34605129
 11
2129.08953941
 21
2387.34605129
  0
LINE
  8
1
 10
2129.08953941
 20
2367.34605129
 11
2129.08953941
 21
2387.34605129
  0
LINE
  8
1
 10
2129.08953941
 20
1691.32092503
 11
2129.08953941
 21
1711.32092503
  0
LINE
  8
1
 10
2129.08953941
 20
1691.32092503
 11
2129.08953941
 21
1711.32092503
  0
LINE
  8
1
 10
2129.08953941
 20
1710.00092503
 11
2129.08953941
 21
1714.44092503
  0
POLYLINE
  8
1
 66
     1
  0
VERTEX
  8
1
 10
2129.08953941
 20
3642.34605129
  0
VERTEX
  8
1
 10
2129.08953941
 20
3662.34605129
  0
VERTEX
  8
1
 10
2129.08953941
 20
3642.34605129
  0
VERTEX
  8
1
 10
2129.08953941
 20
3662.34605129
  0
VERTEX
  8
1
 10
2129.08953941
 20
3642.34605129
  0
SEQEND
  8
1
  0
POLYLINE
  8
1
 66
     1
  0
VERTEX
  8
1
 10
2129.08953941
 20
2367.34605129
  0
VERTEX
  8
1
 10
2129.08953941
 20
2387.34605129
  0
VERTEX
  8
1
 10
2129.08953941
 20
2367.34605129
  0
VERTEX
  8
1
 10
2129.08953941
 20
2387.34605129
  0
VERTEX
  8
1
 10
2129.08953941
 20
2367.34605129
  0
SEQEND
  8
1
  0
POLYLINE
  8
1
 66
     1
  0
VERTEX
  8
1
 10
2129.08953941
 20
1691.32092503
  0
VERTEX
  8
1
 10
2129.08953941
 20
1711.32092503
  0
VERTEX
  8
1
 10
2129.08953941
 20
1691.32092503
  0
VERTEX
  8
1
 10
2129.08953941
 20
1711.32092503
  0
VERTEX
  8
1
 10
2129.08953941
 20
1691.32092503
  0
SEQEND
  8
1
  0
POLYLINE
  8
1
 66
     1
  0
VERTEX
  8
1
 10
2107.58953941
 20
1708.98771878
  0
VERTEX
  8
1
 10
2107.58953941
 20
1715.45413128
  0
VERTEX
  8
1
 10
2107.58953941
 20
1708.98771878
  0
SEQEND
  8
1
  0
LINE
  8
1
 62
     1
 10
2112.62601392
 20
1715.45413128
 11
2107.58953941
 21
1715.45413128
  0
LINE
  8
1
 62
     1
 10
2107.58953941
 20
1708.98771878
 11
2112.62601392
 21
1708.98771878
  0
LINE
  8
1
 10
2108.35633316
 20
1716.22092503
 11
2108.35633316
 21
1708.22092503
  0
POLYLINE
  8
1
 66
     1
  0
VERTEX
  8
1
 10
2112.62601392
 20
1716.22092503
  0
VERTEX
  8
1
 10
2108.35633316
 20
1716.22092503
  0
VERTEX
  8
1
 10
2107.58953941
 20
1715.45413128
  0
SEQEND
  8
1
  0
LINE
  8
1
 10
2108.35633316
 20
1708.22092503
 11
2112.62601392
 21
1708.22092503
  0
LINE
  8
1
 10
2107.58953941
 20
1708.98771878
 11
2108.35633316
 21
1708.22092503
  0
POLYLINE
  8
1
 66
     1
  0
VERTEX
  8
1
 10
2107.58953941
 20
1715.45413128
  0
VERTEX
  8
1
 10
2107.58953941
 20
1708.98771878
  0
VERTEX
  8
1
 10
2107.58953941
 20
1715.45413128
  0
SEQEND
  8
1
  0
ENDBLK
  0
BLOCK
  8
0
  2
DINA4H______________00012
 70
    64
 10
74.99588013
 20
4380.00000000
  3
DINA4H______________00012
  0
POLYLINE
  8
10
 66
     1
  0
VERTEX
  8
10
 10
74.99588013
 20
4380.00000000
  0
VERTEX
  8
10
 10
75.00000000
 20
75.00000000
  0
VERTEX
  8
10
 10
3075.00000000
 20
75.00274658
  0
VERTEX
  8
10
 10
3074.99542236
 20
4380.00296928
  0
VERTEX
  8
10
 10
74.99588013
 20
4380.00000000
  0
SEQEND
  8
10
  0
POLYLINE
  8
10
 62
     4
 66
     1
  0
VERTEX
  8
10
 10
3150.00000000
 20
0.00274658
  0
VERTEX
  8
10
 10
3149.99542236
 20
4455.00274658
  0
VERTEX
  8
10
 10
-0.00411987
 20
4455.00000000
  0
VERTEX
  8
10
 10
0.00000000
 20
0.00000000
  0
VERTEX
  8
10
 10
3150.00000000
 20
0.00274658
  0
SEQEND
  8
10
  0
LINE
  8
10
 62
     4
 10
3074.99725342
 20
2850.00274658
 11
3149.99725342
 21
2850.00274658
  0
LINE
  8
10
 62
     4
 10
3074.99633789
 20
4155.00274658
 11
3149.99633789
 21
4155.00274658
  0
LINE
  8
10
 62
     4
 10
74.99588013
 20
4155.00000000
 11
-0.00411987
 21
4155.00000000
  0
LINE
  8
10
 62
     4
 10
74.99725342
 20
2849.99954224
 11
-0.00274658
 21
2849.99954224
  0
INSERT
  8
0
  2
SCHRIFE_____________00013
 10
266.87255859
 20
330.00274658
  0
ENDBLK
  0
BLOCK
  8
0
  2
SCHRIFE_____________00013
 70
    64
 10
266.87255859
 20
330.00274658
  3
SCHRIFE_____________00013
  0
POLYLINE
  8
10
 62
     4
 66
     1
  0
VERTEX
  8
10
 10
266.87255859
 20
330.00274658
  0
VERTEX
  8
10
 10
1085.87219238
 20
330.00274658
  0
VERTEX
  8
10
 10
3075.00000000
 20
330.00274658
  0
SEQEND
  8
10
  0
POLYLINE
  8
10
 66
     1
  0
VERTEX
  8
10
 10
3074.87274170
 20
903.75274658
  0
VERTEX
  8
10
 10
266.87255859
 20
903.75274658
  0
VERTEX
  8
10
 10
266.87255859
 20
74.86536426
  0
SEQEND
  8
10
  0
LINE
  8
10
 62
     4
 10
383.87237549
 20
648.75274658
 11
383.87237549
 21
74.86786363
  0
LINE
  8
10
 62
     4
 10
773.87237549
 20
648.75274658
 11
773.87237549
 21
74.86787405
  0
LINE
  8
10
 62
     4
 10
968.87237549
 20
648.75274658
 11
968.87237549
 21
74.86787903
  0
LINE
  8
10
 62
     4
 10
266.87255859
 20
393.75274658
 11
1748.87237549
 21
393.75274658
  0
LINE
  8
10
 62
     4
 10
3074.87274170
 20
138.75274658
 11
266.87255859
 21
138.75274658
  0
LINE
  8
10
 62
     4
 10
2411.87255859
 20
138.75274658
 11
2411.87255859
 21
75.00274658
  0
LINE
  8
10
 62
     4
 10
1748.87237549
 20
74.86672107
 11
1748.87237549
 21
903.75274658
  0
LINE
  8
10
 62
     4
 10
1085.87219238
 20
74.86611408
 11
1085.87219238
 21
903.75274658
  0
LINE
  8
10
 62
     4
 10
3074.87274170
 20
648.75274658
 11
266.87255859
 21
648.75274658
  0
LINE
  8
10
 62
     4
 10
1475.87219238
 20
330.00274658
 11
1475.87219238
 21
903.75274658
  0
LINE
  8
10
 62
     4
 10
2528.87237549
 20
808.12774658
 11
2528.87237549
 21
903.75274658
  0
LINE
  8
10
 62
     4
 10
2879.87274170
 20
330.00274658
 11
2879.87274170
 21
138.75274658
  0
LINE
  8
10
 62
     4
 10
1241.87255859
 20
393.75274658
 11
1241.87255859
 21
648.75274658
  0
LINE
  8
10
 62
     4
 10
266.87255859
 20
585.00274658
 11
1748.87237549
 21
585.00274658
  0
LINE
  8
10
 62
     4
 10
266.87255859
 20
521.25274658
 11
1748.87237549
 21
521.25274658
  0
LINE
  8
10
 62
     4
 10
266.87255859
 20
457.50274658
 11
1748.87237549
 21
457.50274658
  0
LINE
  8
10
 62
     4
 10
266.87255859
 20
266.25274658
 11
1085.87219238
 21
266.25274658
  0
LINE
  8
10
 62
     4
 10
266.87255859
 20
202.50274658
 11
1085.87219238
 21
202.50274658
  0
LINE
  8
10
 62
     4
 10
3074.87274170
 20
808.12774658
 11
1748.87237549
 21
808.12774658
  0
LINE
  8
10
 62
     4
 10
3074.87274170
 20
202.50274658
 11
2879.87274170
 21
202.50274658
  0
TEXT
  8
1
 62
     4
 10
1300.27862549
 20
600.00274658
 40
37.50000000
  1
Datum
 50
0.000000000
 41
0.625
 51
0.000000000
  7
STANDARD
  0
TEXT
  8
1
 62
     4
 10
1565.49728394
 20
600.00274658
 40
37.50000000
  1
Name
 50
0.000000000
 41
0.625
 51
0.000000000
  7
STANDARD
  0
TEXT
  8
1
 62
     4
 10
1104.67712402
 20
472.50274658
 40
37.50000000
  1
Gepr.
 50
0.000000000
 41
0.625
 51
0.000000000
  7
STANDARD
  0
TEXT
  8
1
 62
     4
 10
1104.67712402
 20
408.75274658
 40
37.50000000
  1
Norm
 50
0.000000000
 41
0.625
 51
0.000000000
  7
STANDARD
  0
TEXT
  8
1
 62
     4
 10
279.22502806
 20
89.86786234
 40
37.50000000
  1
Zust.
 50
0.000000000
 41
0.625
 51
0.000000000
  7
STANDARD
  0
TEXT
  8
1
 62
     4
 10
485.12237549
 20
89.86786883
 40
37.50000000
  1
Änderung
 50
0.000000000
 41
0.625
 51
0.000000000
  7
STANDARD
  0
TEXT
  8
1
 62
     4
 10
812.77862549
 20
89.86787660
 40
37.50000000
  1
Datum
 50
0.000000000
 41
0.625
 51
0.000000000
  7
STANDARD
  0
TEXT
  8
1
 62
     4
 10
983.49728394
 20
89.86788075
 40
37.50000000
  1
Name
 50
0.000000000
 41
0.625
 51
0.000000000
  7
STANDARD
  0
TEXT
  8
1
 62
     4
 10
1803.50738525
 20
829.39956665
 40
37.50000000
  1
Maßstab:
 50
0.000000000
 41
0.812
 51
0.000000000
  7
STANDARD
  0
TEXT
  8
1
 62
     4
 10
1100.87219238
 20
89.86788230
 40
37.50000000
  1
Urspr.
 50
0.000000000
 41
0.625
 51
0.000000000
  7
STANDARD
  0
TEXT
  8
1
 62
     4
 10
1763.87237549
 20
89.86789993
 40
37.50000000
  1
Ers. f.:
 50
0.000000000
 41
0.625
 51
0.000000000
  7
STANDARD
  0
TEXT
  8
1
 62
     4
 10
2426.87255859
 20
89.86791755
 40
37.50000000
  1
Ers. d.:
 50
0.000000000
 41
0.625
 51
0.000000000
  7
STANDARD
  0
TEXT
  8
1
 62
     4
 10
2897.49938965
 20
273.03863525
 40
37.50000000
  1
Blatt
 50
0.000000000
 41
0.625
 51
0.000000000
  7
STANDARD
  0
TEXT
  8
1
 62
     4
 10
3018.98128555
 20
153.75274658
 40
37.50000000
  1
Bl.
 50
0.000000000
 41
0.625
 51
0.000000000
  7
STANDARD
  0
TEXT
  8
1
 62
     4
 10
2062.34211678
 20
829.39956665
 40
37.50000000
  1
1:15
 50
0.000000000
 41
0.812
 51
0.000000000
  7
STANDARD
  0
TEXT
  8
1
 10
1804.43638257
 20
457.50274658
 40
75.00000000
  1
SEITENWAND   H=2200 T=600
 50
0.000000000
 41
0.625
 51
0.000000000
  7
STANDARD
  0
TEXT
  8
1
 62
     4
 10
1265.12237549
 20
536.25274658
 40
30.00000000
  1
06.09.2007
 50
0.000000000
 41
0.625
 51
0.000000000
  7
STANDARD
  0
TEXT
  8
1
 62
     4
 10
1494.67712402
 20
536.25274658
 40
30.00000000
  1
MolnarW
 50
0.000000000
 41
0.625
 51
0.000000000
  7
STANDARD
  0
TEXT
  8
1
 62
     4
 10
1349.49737549
 20
472.50274658
 40
30.00000000
  1
 
 50
0.000000000
 41
0.625
 51
0.000000000
  7
STANDARD
  0
TEXT
  8
1
 62
     4
 10
1349.49737549
 20
408.75274658
 40
30.00000000
  1
 
 50
0.000000000
 41
0.625
 51
0.000000000
  7
STANDARD
  0
TEXT
  8
1
 62
     4
 10
1494.62219238
 20
472.50274658
 40
30.00000000
  1
 
 50
0.000000000
 41
0.625
 51
0.000000000
  7
STANDARD
  0
TEXT
  8
1
 62
     4
 10
1494.62219238
 20
408.75274658
 40
30.00000000
  1
 
 50
0.000000000
 41
0.625
 51
0.000000000
  7
STANDARD
  0
TEXT
  8
1
 10
1803.50738525
 20
208.12774658
 40
52.50000000
  1
0396-7022-60-67
 50
0.000000000
 41
0.812
 51
0.000000000
  7
STANDARD
  0
TEXT
  8
1
 10
1803.50738525
 20
702.16693935
 40
60.00000000
  1
 
 50
0.000000000
 41
0.812
 51
0.000000000
  7
STANDARD
  0
TEXT
  8
1
 62
     4
 10
2965.71762085
 20
217.50274658
 40
37.50000000
  1
 
 50
0.000000000
 41
0.625
 51
0.000000000
  7
STANDARD
  0
TEXT
  8
1
 62
     4
 10
1263.53648732
 20
89.86667292
 40
37.50000000
  1
 
 50
0.000000000
 41
0.625
 51
0.000000000
  7
STANDARD
  0
TEXT
  8
1
 62
     4
 10
1988.36667818
 20
89.86669219
 40
37.50000000
  1
 
 50
0.000000000
 41
0.625
 51
0.000000000
  7
STANDARD
  0
TEXT
  8
1
 62
     4
 10
2652.01630284
 20
89.86670983
 40
37.50000000
  1
 
 50
0.000000000
 41
0.625
 51
0.000000000
  7
STANDARD
  0
TEXT
  8
1
 62
     4
 10
1104.67712402
 20
536.25274658
 40
37.50000000
  1
Bearb.
 50
0.000000000
 41
0.625
 51
0.000000000
  7
STANDARD
  0
TEXT
  8
1
 62
     4
 10
2583.47237549
 20
829.39956665
 40
37.50000000
  1
Gewicht:
 50
0.000000000
 41
0.812
 51
0.000000000
  7
STANDARD
  0
TEXT
  8
1
 62
     4
 10
2829.30432346
 20
829.39956665
 40
37.50000000
  1
 
 50
0.000000000
 41
0.812
 51
0.000000000
  7
STANDARD
  0
TEXT
  8
1
 10
1803.62365393
 20
700.57528387
 40
67.50000000
  1
CAD:
 50
0.000000000
 41
0.625
 51
0.000000000
  7
STANDARD
  0
TEXT
  8
1
 10
2030.86015442
 20
700.57528387
 40
67.50000000
  1
C:00056030.SZN
 50
0.000000000
 41
0.625
 51
0.000000000
  7
STANDARD
  0
TEXT
  8
1
 62
     4
 10
346.65100811
 20
217.50524466
 40
37.50000000
  1
 
 50
0.000000000
 41
0.625
 51
0.000000000
  7
STANDARD
  0
TEXT
  8
1
 62
     4
 10
400.30761955
 20
217.50524466
 40
37.50000000
  1
 
 50
0.000000000
 41
0.625
 51
0.000000000
  7
STANDARD
  0
TEXT
  8
1
 62
     4
 10
858.01485103
 20
217.50524466
 40
37.50000000
  1
 
 50
0.000000000
 41
0.438
 51
0.000000000
  7
STANDARD
  0
TEXT
  8
1
 62
     4
 10
1015.65353394
 20
217.50524466
 40
37.50000000
  1
 
 50
0.000000000
 41
0.625
 51
0.000000000
  7
STANDARD
  0
TEXT
  8
1
 62
     4
 10
346.65100811
 20
281.25524466
 40
37.50000000
  1
 
 50
0.000000000
 41
0.625
 51
0.000000000
  7
STANDARD
  0
TEXT
  8
1
 62
     4
 10
400.30761955
 20
281.25524466
 40
37.50000000
  1
 
 50
0.000000000
 41
0.625
 51
0.000000000
  7
STANDARD
  0
TEXT
  8
1
 62
     4
 10
858.01485103
 20
281.25524466
 40
37.50000000
  1
 
 50
0.000000000
 41
0.438
 51
0.000000000
  7
STANDARD
  0
TEXT
  8
1
 62
     4
 10
1015.65353394
 20
281.25524466
 40
37.50000000
  1
 
 50
0.000000000
 41
0.625
 51
0.000000000
  7
STANDARD
  0
TEXT
  8
1
 62
     4
 10
346.65100811
 20
600.00524466
 40
37.50000000
  1
 
 50
0.000000000
 41
0.625
 51
0.000000000
  7
STANDARD
  0
TEXT
  8
1
 62
     4
 10
400.30761955
 20
600.00524466
 40
37.50000000
  1
 
 50
0.000000000
 41
0.625
 51
0.000000000
  7
STANDARD
  0
TEXT
  8
1
 62
     4
 10
858.01485103
 20
600.00524466
 40
37.50000000
  1
 
 50
0.000000000
 41
0.438
 51
0.000000000
  7
STANDARD
  0
TEXT
  8
1
 62
     4
 10
1015.65353394
 20
600.00524466
 40
37.50000000
  1
 
 50
0.000000000
 41
0.625
 51
0.000000000
  7
STANDARD
  0
TEXT
  8
1
 62
     4
 10
346.65100811
 20
153.75524466
 40
37.50000000
  1
 
 50
0.000000000
 41
0.625
 51
0.000000000
  7
STANDARD
  0
TEXT
  8
1
 62
     4
 10
400.30761955
 20
153.75524466
 40
37.50000000
  1
 
 50
0.000000000
 41
0.625
 51
0.000000000
  7
STANDARD
  0
TEXT
  8
1
 62
     4
 10
858.01485103
 20
153.75524466
 40
37.50000000
  1
 
 50
0.000000000
 41
0.438
 51
0.000000000
  7
STANDARD
  0
TEXT
  8
1
 62
     4
 10
1015.65353394
 20
153.75524466
 40
37.50000000
  1
 
 50
0.000000000
 41
0.625
 51
0.000000000
  7
STANDARD
  0
TEXT
  8
1
 62
     4
 10
346.65100811
 20
472.50524466
 40
37.50000000
  1
 
 50
0.000000000
 41
0.625
 51
0.000000000
  7
STANDARD
  0
TEXT
  8
1
 62
     4
 10
400.30761955
 20
472.50524466
 40
37.50000000
  1
 
 50
0.000000000
 41
0.625
 51
0.000000000
  7
STANDARD
  0
TEXT
  8
1
 62
     4
 10
858.01485103
 20
472.50524466
 40
37.50000000
  1
 
 50
0.000000000
 41
0.438
 51
0.000000000
  7
STANDARD
  0
TEXT
  8
1
 62
     4
 10
1015.65353394
 20
472.50524466
 40
37.50000000
  1
 
 50
0.000000000
 41
0.625
 51
0.000000000
  7
STANDARD
  0
TEXT
  8
1
 62
     4
 10
346.65100811
 20
536.25524466
 40
37.50000000
  1
 
 50
0.000000000
 41
0.625
 51
0.000000000
  7
STANDARD
  0
TEXT
  8
1
 62
     4
 10
400.30761955
 20
536.25524466
 40
37.50000000
  1
 
 50
0.000000000
 41
0.625
 51
0.000000000
  7
STANDARD
  0
TEXT
  8
1
 62
     4
 10
858.01485103
 20
536.25524466
 40
37.50000000
  1
 
 50
0.000000000
 41
0.438
 51
0.000000000
  7
STANDARD
  0
TEXT
  8
1
 62
     4
 10
1015.65353394
 20
536.25524466
 40
37.50000000
  1
 
 50
0.000000000
 41
0.625
 51
0.000000000
  7
STANDARD
  0
TEXT
  8
1
 62
     4
 10
346.65100811
 20
345.00524466
 40
37.50000000
  1
 
 50
0.000000000
 41
0.625
 51
0.000000000
  7
STANDARD
  0
TEXT
  8
1
 62
     4
 10
400.30761955
 20
345.00524466
 40
37.50000000
  1
 
 50
0.000000000
 41
0.625
 51
0.000000000
  7
STANDARD
  0
TEXT
  8
1
 62
     4
 10
858.01485103
 20
345.00524466
 40
37.50000000
  1
 
 50
0.000000000
 41
0.438
 51
0.000000000
  7
STANDARD
  0
TEXT
  8
1
 62
     4
 10
1015.65353394
 20
345.00524466
 40
37.50000000
  1
 
 50
0.000000000
 41
0.625
 51
0.000000000
  7
STANDARD
  0
TEXT
  8
1
 62
     4
 10
346.65100811
 20
408.75524466
 40
37.50000000
  1
 
 50
0.000000000
 41
0.625
 51
0.000000000
  7
STANDARD
  0
TEXT
  8
1
 62
     4
 10
400.30761955
 20
408.75524466
 40
37.50000000
  1
 
 50
0.000000000
 41
0.625
 51
0.000000000
  7
STANDARD
  0
TEXT
  8
1
 62
     4
 10
858.01485103
 20
408.75524466
 40
37.50000000
  1
 
 50
0.000000000
 41
0.438
 51
0.000000000
  7
STANDARD
  0
TEXT
  8
1
 62
     4
 10
1015.65353394
 20
408.75524466
 40
37.50000000
  1
 
 50
0.000000000
 41
0.625
 51
0.000000000
  7
STANDARD
  0
TEXT
  8
2
 10
1127.83294077
 20
249.84359660
 40
52.50000000
  1
häwa Fertigungs GmbH
 50
0.000000000
 41
0.471
 51
0.000000000
  7
STANDARD
  0
TEXT
  8
2
 62
     4
 10
1127.83294077
 20
171.48501324
 40
37.50000000
  1
Industriestraße 12     D-88489 Wain
 50
0.000000000
 41
0.450
 51
0.000000000
  7
STANDARD
  0
POLYLINE
  8
10
 62
     4
 66
     1
  0
VERTEX
  8
10
 10
537.33366454
 20
705.55695732
  0
VERTEX
  8
10
 10
538.68687079
 20
705.83594070
  0
VERTEX
  8
10
 10
540.04007704
 20
706.14399410
  0
VERTEX
  8
10
 10
540.95760754
 20
706.40075973
  0
VERTEX
  8
10
 10
542.01958085
 20
706.73735979
  0
VERTEX
  8
10
 10
543.03552776
 20
707.09795079
  0
VERTEX
  8
10
 10
544.00673745
 20
707.48035175
  0
VERTEX
  8
10
 10
544.93449923
 20
707.88238164
  0
VERTEX
  8
10
 10
545.82010228
 20
708.30185945
  0
VERTEX
  8
10
 10
546.66483591
 20
708.73660427
  0
VERTEX
  8
10
 10
547.46998933
 20
709.18443504
  0
VERTEX
  8
10
 10
548.23685178
 20
709.64317076
  0
VERTEX
  8
10
 10
548.96671252
 20
710.11063049
  0
VERTEX
  8
10
 10
549.66086078
 20
710.58463316
  0
VERTEX
  8
10
 10
550.32058585
 20
711.06299785
  0
VERTEX
  8
10
 10
550.94717696
 20
711.54354351
  0
VERTEX
  8
10
 10
551.54192334
 20
712.02408920
  0
VERTEX
  8
10
 10
552.10611425
 20
712.50245386
  0
VERTEX
  8
10
 10
552.64103892
 20
712.97645656
  0
VERTEX
  8
10
 10
553.14798664
 20
713.44391629
  0
VERTEX
  8
10
 10
553.62824661
 20
713.90265202
  0
VERTEX
  8
10
 10
554.08310809
 20
714.35048278
  0
VERTEX
  8
10
 10
554.51386035
 20
714.78522757
  0
VERTEX
  8
10
 10
554.92179260
 20
715.20470541
  0
VERTEX
  8
10
 10
555.30819411
 20
715.60673530
  0
VERTEX
  8
10
 10
555.47752741
 20
715.48739727
  0
VERTEX
  8
10
 10
555.44822079
 20
714.87743879
  0
VERTEX
  8
10
 10
555.42410269
 20
714.28915330
  0
VERTEX
  8
10
 10
555.40646182
 20
713.72247087
  0
VERTEX
  8
10
 10
555.39658695
 20
713.17732152
  0
VERTEX
  8
10
 10
555.39576676
 20
712.65363536
  0
VERTEX
  8
10
 10
555.40529002
 20
712.15134245
  0
VERTEX
  8
10
 10
555.42644543
 20
711.67037285
  0
VERTEX
  8
10
 10
555.46052165
 20
711.21065665
  0
VERTEX
  8
10
 10
555.50880752
 20
710.77212389
  0
VERTEX
  8
10
 10
555.57259167
 20
710.35470465
  0
VERTEX
  8
10
 10
555.65316283
 20
709.95832904
  0
VERTEX
  8
10
 10
555.75180976
 20
709.58292707
  0
VERTEX
  8
10
 10
555.86982115
 20
709.22842885
  0
VERTEX
  8
10
 10
556.00848574
 20
708.89476442
  0
VERTEX
  8
10
 10
556.16909227
 20
708.58186384
  0
VERTEX
  8
10
 10
556.35292942
 20
708.28965725
  0
VERTEX
  8
10
 10
556.56128591
 20
708.01807463
  0
VERTEX
  8
10
 10
556.79545049
 20
707.76704611
  0
VERTEX
  8
10
 10
557.05671185
 20
707.53650173
  0
VERTEX
  8
10
 10
557.34635876
 20
707.32637157
  0
VERTEX
  8
10
 10
557.66567989
 20
707.13658569
  0
VERTEX
  8
10
 10
558.01596400
 20
706.96707420
  0
VERTEX
  8
10
 10
558.39849979
 20
706.81776712
  0
VERTEX
  8
10
 10
558.81457599
 20
706.68859453
  0
VERTEX
  8
10
 10
559.26548131
 20
706.57948652
  0
VERTEX
  8
10
 10
559.75250446
 20
706.49037312
  0
VERTEX
  8
10
 10
560.27693421
 20
706.42118445
  0
VERTEX
  8
10
 10
560.84005926
 20
706.37185055
  0
VERTEX
  8
10
 10
561.44316831
 20
706.34230147
  0
VERTEX
  8
10
 10
562.08755008
 20
706.33246734
  0
VERTEX
  8
10
 10
569.01952137
 20
706.33422005
  0
VERTEX
  8
10
 10
569.01952137
 20
708.53040945
  0
VERTEX
  8
10
 10
568.69587084
 20
708.66626573
  0
VERTEX
  8
10
 10
568.39025296
 20
708.80811076
  0
VERTEX
  8
10
 10
568.10212980
 20
708.95648095
  0
VERTEX
  8
10
 10
567.83096354
 20
709.11191253
  0
VERTEX
  8
10
 10
567.57621623
 20
709.27494180
  0
VERTEX
  8
10
 10
567.33734999
 20
709.44610514
  0
VERTEX
  8
10
 10
567.11382695
 20
709.62593882
  0
VERTEX
  8
10
 10
566.90510925
 20
709.81497917
  0
VERTEX
  8
10
 10
566.71065896
 20
710.01376246
  0
VERTEX
  8
10
 10
566.52993819
 20
710.22282503
  0
VERTEX
  8
10
 10
566.36240906
 20
710.44270319
  0
VERTEX
  8
10
 10
566.20753373
 20
710.67393326
  0
VERTEX
  8
10
 10
566.06477423
 20
710.91705152
  0
VERTEX
  8
10
 10
565.93359275
 20
711.17259427
  0
VERTEX
  8
10
 10
565.81345135
 20
711.44109789
  0
VERTEX
  8
10
 10
565.70381220
 20
711.72309860
  0
VERTEX
  8
10
 10
565.60413734
 20
712.01913279
  0
VERTEX
  8
10
 10
565.51388891
 20
712.32973671
  0
VERTEX
  8
10
 10
565.43252902
 20
712.65544674
  0
VERTEX
  8
10
 10
565.35951983
 20
712.99679908
  0
VERTEX
  8
10
 10
565.29432340
 20
713.35433017
  0
VERTEX
  8
10
 10
565.23640184
 20
713.72857621
  0
VERTEX
  8
10
 10
565.18521730
 20
714.12007358
  0
VERTEX
  8
10
 10
565.14023189
 20
714.52935853
  0
VERTEX
  8
10
 10
565.10090768
 20
714.95696745
  0
VERTEX
  8
10
 10
565.06670678
 20
715.40343656
  0
VERTEX
  8
10
 10
565.03709138
 20
715.86930224
  0
VERTEX
  8
10
 10
565.01152354
 20
716.35510079
  0
VERTEX
  8
10
 10
564.98946534
 20
716.86136849
  0
VERTEX
  8
10
 10
564.97037896
 20
717.38864166
  0
VERTEX
  8
10
 10
564.96164728
 20
717.66625307
  0
VERTEX
  8
10
 10
564.79270962
 20
725.09702524
  0
VERTEX
  8
10
 10
565.29952256
 20
746.38565330
  0
VERTEX
  8
10
 10
565.29992704
 20
746.41841713
  0
VERTEX
  8
10
 10
565.29992704
 20
766.18412198
  0
VERTEX
  8
10
 10
565.28364545
 20
766.78853530
  0
VERTEX
  8
10
 10
565.26727400
 20
767.40405809
  0
VERTEX
  8
10
 10
565.24963219
 20
768.02979643
  0
VERTEX
  8
10
 10
565.22953968
 20
768.66485634
  0
VERTEX
  8
10
 10
565.20581602
 20
769.30834376
  0
VERTEX
  8
10
 10
565.17728080
 20
769.95936476
  0
VERTEX
  8
10
 10
565.14275365
 20
770.61702538
  0
VERTEX
  8
10
 10
565.10105415
 20
771.28043160
  0
VERTEX
  8
10
 10
565.05100190
 20
771.94868949
  0
VERTEX
  8
10
 10
564.99141644
 20
772.62090501
  0
VERTEX
  8
10
 10
564.92111741
 20
773.29618420
  0
VERTEX
  8
10
 10
564.83892442
 20
773.97363306
  0
VERTEX
  8
10
 10
564.74365701
 20
774.65235765
  0
VERTEX
  8
10
 10
564.63413481
 20
775.33146395
  0
VERTEX
  8
10
 10
564.50917736
 20
776.01005802
  0
VERTEX
  8
10
 10
564.36760435
 20
776.68724584
  0
VERTEX
  8
10
 10
564.20823526
 20
777.36213342
  0
VERTEX
  8
10
 10
564.02988975
 20
778.03382683
  0
VERTEX
  8
10
 10
563.83138739
 20
778.70143203
  0
VERTEX
  8
10
 10
563.61154781
 20
779.36405510
  0
VERTEX
  8
10
 10
563.36919055
 20
780.02080203
  0
VERTEX
  8
10
 10
563.10313523
 20
780.67077882
  0
VERTEX
  8
10
 10
562.81220141
 20
781.31309148
  0
VERTEX
  8
10
 10
562.49520873
 20
781.94684611
  0
VERTEX
  8
10
 10
562.15097677
 20
782.57114860
  0
VERTEX
  8
10
 10
561.77832509
 20
783.18510510
  0
VERTEX
  8
10
 10
561.37607331
 20
783.78782154
  0
VERTEX
  8
10
 10
560.94304103
 20
784.37840398
  0
VERTEX
  8
10
 10
560.47804783
 20
784.95595839
  0
VERTEX
  8
10
 10
559.97991326
 20
785.51959088
  0
VERTEX
  8
10
 10
559.49041494
 20
786.03450502
  0
VERTEX
  8
10
 10
559.01606007
 20
786.49711619
  0
VERTEX
  8
10
 10
558.51718056
 20
786.94048887
  0
VERTEX
  8
10
 10
557.99488535
 20
787.36487272
  0
VERTEX
  8
10
 10
557.45028330
 20
787.77051733
  0
VERTEX
  8
10
 10
556.88448338
 20
788.15767231
  0
VERTEX
  8
10
 10
556.29859440
 20
788.52658730
  0
VERTEX
  8
10
 10
555.69372535
 20
788.87751193
  0
VERTEX
  8
10
 10
555.07098503
 20
789.21069577
  0
VERTEX
  8
10
 10
554.43148242
 20
789.52638851
  0
VERTEX
  8
10
 10
553.77632639
 20
789.82483973
  0
VERTEX
  8
10
 10
553.10662588
 20
790.10629909
  0
VERTEX
  8
10
 10
552.42348969
 20
790.37101615
  0
VERTEX
  8
10
 10
551.72802684
 20
790.61924054
  0
VERTEX
  8
10
 10
551.02134612
 20
790.85122192
  0
VERTEX
  8
10
 10
550.30455653
 20
791.06720991
  0
VERTEX
  8
10
 10
549.57876688
 20
791.26745409
  0
VERTEX
  8
10
 10
548.84508613
 20
791.45220409
  0
VERTEX
  8
10
 10
548.10462318
 20
791.62170959
  0
VERTEX
  8
10
 10
547.35848687
 20
791.77622012
  0
VERTEX
  8
10
 10
546.60778617
 20
791.91598536
  0
VERTEX
  8
10
 10
545.85362997
 20
792.04125491
  0
VERTEX
  8
10
 10
545.09712712
 20
792.15227841
  0
VERTEX
  8
10
 10
544.33938655
 20
792.24930547
  0
VERTEX
  8
10
 10
543.58151718
 20
792.33258571
  0
VERTEX
  8
10
 10
542.82462786
 20
792.40236876
  0
VERTEX
  8
10
 10
542.06982756
 20
792.45890420
  0
VERTEX
  8
10
 10
541.31822513
 20
792.50244168
  0
VERTEX
  8
10
 10
540.57092946
 20
792.53323084
  0
VERTEX
  8
10
 10
539.82904947
 20
792.55152128
  0
VERTEX
  8
10
 10
539.09369407
 20
792.55756264
  0
VERTEX
  8
10
 10
537.86934665
 20
792.53967369
  0
VERTEX
  8
10
 10
536.59574284
 20
792.48424293
  0
VERTEX
  8
10
 10
535.27920953
 20
792.38862440
  0
VERTEX
  8
10
 10
533.92607361
 20
792.25017217
  0
VERTEX
  8
10
 10
532.54266188
 20
792.06624033
  0
VERTEX
  8
10
 10
531.13530133
 20
791.83418296
  0
VERTEX
  8
10
 10
529.71031878
 20
791.55135413
  0
VERTEX
  8
10
 10
528.27404111
 20
791.21510792
  0
VERTEX
  8
10
 10
526.83279519
 20
790.82279835
  0
VERTEX
  8
10
 10
525.39290796
 20
790.37177954
  0
VERTEX
  8
10
 10
523.96070626
 20
789.85940556
  0
VERTEX
  8
10
 10
522.54251695
 20
789.28303046
  0
VERTEX
  8
10
 10
521.14466695
 20
788.64000835
  0
VERTEX
  8
10
 10
519.77348312
 20
787.92769325
  0
VERTEX
  8
10
 10
518.43529237
 20
787.14343928
  0
VERTEX
  8
10
 10
517.13642150
 20
786.28460052
  0
VERTEX
  8
10
 10
515.88319749
 20
785.34853100
  0
VERTEX
  8
10
 10
514.68194717
 20
784.33258477
  0
VERTEX
  8
10
 10
513.53899742
 20
783.23411599
  0
VERTEX
  8
10
 10
512.46067514
 20
782.05047868
  0
VERTEX
  8
10
 10
511.45330716
 20
780.77902691
  0
VERTEX
  8
10
 10
510.52322043
 20
779.41711475
  0
VERTEX
  8
10
 10
509.67674178
 20
777.96209629
  0
VERTEX
  8
10
 10
508.92019812
 20
776.41132561
  0
VERTEX
  8
10
 10
508.25991636
 20
774.76215673
  0
VERTEX
  8
10
 10
507.70222329
 20
773.01194380
  0
VERTEX
  8
10
 10
507.25344587
 20
771.15804084
  0
VERTEX
  8
10
 10
506.91991091
 20
769.19780193
  0
VERTEX
  8
10
 10
506.70794537
 20
767.12858116
  0
VERTEX
  8
10
 10
506.62387608
 20
764.94773257
  0
VERTEX
  8
10
 10
506.63986704
 20
763.81462103
  0
VERTEX
  8
10
 10
516.77364156
 20
763.81462103
  0
VERTEX
  8
10
 10
516.79122743
 20
764.39278287
  0
VERTEX
  8
10
 10
516.81314479
 20
765.02578623
  0
VERTEX
  8
10
 10
516.84375720
 20
765.70851931
  0
VERTEX
  8
10
 10
516.88742823
 20
766.43587037
  0
VERTEX
  8
10
 10
516.94852145
 20
767.20272763
  0
VERTEX
  8
10
 10
517.03140043
 20
768.00397935
  0
VERTEX
  8
10
 10
517.14042873
 20
768.83451369
  0
VERTEX
  8
10
 10
517.27996991
 20
769.68921893
  0
VERTEX
  8
10
 10
517.45438755
 20
770.56298326
  0
VERTEX
  8
10
 10
517.66804518
 20
771.45069497
  0
VERTEX
  8
10
 10
517.92530639
 20
772.34724221
  0
VERTEX
  8
10
 10
518.23053476
 20
773.24751330
  0
VERTEX
  8
10
 10
518.58809386
 20
774.14639643
  0
VERTEX
  8
10
 10
519.00234721
 20
775.03877980
  0
VERTEX
  8
10
 10
519.47765841
 20
775.91955165
  0
VERTEX
  8
10
 10
520.01839101
 20
776.78360026
  0
VERTEX
  8
10
 10
520.62890859
 20
777.62581382
  0
VERTEX
  8
10
 10
521.31357470
 20
778.44108053
  0
VERTEX
  8
10
 10
522.07675289
 20
779.22428866
  0
VERTEX
  8
10
 10
522.92280677
 20
779.97032646
  0
VERTEX
  8
10
 10
523.85609992
 20
780.67408212
  0
VERTEX
  8
10
 10
524.88099581
 20
781.33044388
  0
VERTEX
  8
10
 10
526.00185810
 20
781.93429997
  0
VERTEX
  8
10
 10
527.22305031
 20
782.48053863
  0
VERTEX
  8
10
 10
528.54893602
 20
782.96404807
  0
VERTEX
  8
10
 10
529.98387877
 20
783.37971655
  0
VERTEX
  8
10
 10
531.53224216
 20
783.72243227
  0
VERTEX
  8
10
 10
533.19838973
 20
783.98708343
  0
VERTEX
  8
10
 10
534.98668506
 20
784.16855835
  0
VERTEX
  8
10
 10
536.90149171
 20
784.26174518
  0
VERTEX
  8
10
 10
538.75018681
 20
784.26443197
  0
VERTEX
  8
10
 10
540.35277818
 20
784.19202890
  0
VERTEX
  8
10
 10
541.84862680
 20
784.05030609
  0
VERTEX
  8
10
 10
543.24145158
 20
783.84248082
  0
VERTEX
  8
10
 10
544.53497144
 20
783.57177043
  0
VERTEX
  8
10
 10
545.73290539
 20
783.24139227
  0
VERTEX
  8
10
 10
546.83897230
 20
782.85456369
  0
VERTEX
  8
10
 10
547.85689113
 20
782.41450199
  0
VERTEX
  8
10
 10
548.79038084
 20
781.92442452
  0
VERTEX
  8
10
 10
549.64316037
 20
781.38754861
  0
VERTEX
  8
10
 10
550.41894868
 20
780.80709161
  0
VERTEX
  8
10
 10
551.12146466
 20
780.18627083
  0
VERTEX
  8
10
 10
551.75442728
 20
779.52830363
  0
VERTEX
  8
10
 10
552.32155551
 20
778.83640732
  0
VERTEX
  8
10
 10
552.82656826
 20
778.11379926
  0
VERTEX
  8
10
 10
553.27318446
 20
777.36369676
  0
VERTEX
  8
10
 10
553.66512304
 20
776.58931715
  0
VERTEX
  8
10
 10
554.00610301
 20
775.79387780
  0
VERTEX
  8
10
 10
554.29984327
 20
774.98059601
  0
VERTEX
  8
10
 10
554.55006273
 20
774.15268913
  0
VERTEX
  8
10
 10
554.76048038
 20
773.31337446
  0
VERTEX
  8
10
 10
554.93481517
 20
772.46586940
  0
VERTEX
  8
10
 10
555.07678599
 20
771.61339121
  0
VERTEX
  8
10
 10
555.19011182
 20
770.75915728
  0
VERTEX
  8
10
 10
555.27851159
 20
769.90638497
  0
VERTEX
  8
10
 10
555.34570423
 20
769.05829153
  0
VERTEX
  8
10
 10
555.39540872
 20
768.21809432
  0
VERTEX
  8
10
 10
555.43134396
 20
767.38901072
  0
VERTEX
  8
10
 10
555.45722892
 20
766.57425801
  0
VERTEX
  8
10
 10
555.47678254
 20
765.77705354
  0
VERTEX
  8
10
 10
555.49372374
 20
765.00061468
  0
VERTEX
  8
10
 10
555.48185937
 20
757.05285833
  0
VERTEX
  8
10
 10
540.61534631
 20
755.36099749
  0
VERTEX
  8
10
 10
540.04007704
 20
755.28888564
  0
VERTEX
  8
10
 10
537.34046867
 20
754.95569423
  0
VERTEX
  8
10
 10
534.62725204
 20
754.57171616
  0
VERTEX
  8
10
 10
534.38224427
 20
754.53692130
  0
VERTEX
  8
10
 10
533.37661836
 20
754.38813945
  0
VERTEX
  8
10
 10
532.38162922
 20
754.23408944
  0
VERTEX
  8
10
 10
531.39770599
 20
754.07402091
  0
VERTEX
  8
10
 10
530.42527762
 20
753.90718357
  0
VERTEX
  8
10
 10
529.46477327
 20
753.73282709
  0
VERTEX
  8
10
 10
528.51662188
 20
753.55020119
  0
VERTEX
  8
10
 10
527.58125256
 20
753.35855558
  0
VERTEX
  8
10
 10
526.65909432
 20
753.15713992
  0
VERTEX
  8
10
 10
525.75057625
 20
752.94520390
  0
VERTEX
  8
10
 10
524.85612738
 20
752.72199722
  0
VERTEX
  8
10
 10
523.97617676
 20
752.48676959
  0
VERTEX
  8
10
 10
523.11115342
 20
752.23877066
  0
VERTEX
  8
10
 10
522.26148644
 20
751.97725016
  0
VERTEX
  8
10
 10
521.42760484
 20
751.70145774
  0
VERTEX
  8
10
 10
520.60993769
 20
751.41064315
  0
VERTEX
  8
10
 10
519.80891403
 20
751.10405605
  0
VERTEX
  8
10
 10
519.02496289
 20
750.78094612
  0
VERTEX
  8
10
 10
518.25851333
 20
750.44056307
  0
VERTEX
  8
10
 10
517.50999440
 20
750.08215658
  0
VERTEX
  8
10
 10
516.77983516
 20
749.70497636
  0
VERTEX
  8
10
 10
516.06846467
 20
749.30827211
  0
VERTEX
  8
10
 10
515.37631191
 20
748.89129348
  0
VERTEX
  8
10
 10
514.70380600
 20
748.45329017
  0
VERTEX
  8
10
 10
514.05137594
 20
747.99351189
  0
VERTEX
  8
10
 10
513.53233665
 20
747.61127407
  0
VERTEX
  8
10
 10
513.12631718
 20
747.30776582
  0
VERTEX
  8
10
 10
512.71470226
 20
746.98332362
  0
VERTEX
  8
10
 10
512.29885047
 20
746.63780441
  0
VERTEX
  8
10
 10
511.88012046
 20
746.27106520
  0
VERTEX
  8
10
 10
511.45987093
 20
745.88296298
  0
VERTEX
  8
10
 10
511.03946053
 20
745.47335474
  0
VERTEX
  8
10
 10
510.62024784
 20
745.04209743
  0
VERTEX
  8
10
 10
510.20359160
 20
744.58904809
  0
VERTEX
  8
10
 10
509.79085041
 20
744.11406364
  0
VERTEX
  8
10
 10
509.38338294
 20
743.61700111
  0
VERTEX
  8
10
 10
508.98254780
 20
743.09771748
  0
VERTEX
  8
10
 10
508.58970373
 20
742.55606969
  0
VERTEX
  8
10
 10
508.20620930
 20
741.99191479
  0
VERTEX
  8
10
 10
507.83342321
 20
741.40510971
  0
VERTEX
  8
10
 10
507.47270407
 20
740.79551148
  0
VERTEX
  8
10
 10
507.12541058
 20
740.16297705
  0
VERTEX
  8
10
 10
506.79290135
 20
739.50736338
  0
VERTEX
  8
10
 10
506.47653508
 20
738.82852754
  0
VERTEX
  8
10
 10
506.17767039
 20
738.12632644
  0
VERTEX
  8
10
 10
505.89766593
 20
737.40061709
  0
VERTEX
  8
10
 10
505.63788031
 20
736.65125643
  0
VERTEX
  8
10
 10
505.39967228
 20
735.87810153
  0
VERTEX
  8
10
 10
505.18440044
 20
735.08100932
  0
VERTEX
  8
10
 10
504.99342341
 20
734.25983678
  0
VERTEX
  8
10
 10
504.82809990
 20
733.41444088
  0
VERTEX
  8
10
 10
504.68978854
 20
732.54467868
  0
VERTEX
  8
10
 10
504.57984797
 20
731.65040709
  0
VERTEX
  8
10
 10
504.49963687
 20
730.73148309
  0
VERTEX
  8
10
 10
504.45051382
 20
729.78776373
  0
VERTEX
  8
10
 10
504.43383759
 20
728.81910596
  0
VERTEX
  8
10
 10
504.44144127
 20
728.18671302
  0
VERTEX
  8
10
 10
504.46413314
 20
727.55380168
  0
VERTEX
  8
10
 10
504.50173441
 20
726.92094400
  0
VERTEX
  8
10
 10
504.55406636
 20
726.28871196
  0
VERTEX
  8
10
 10
504.62095018
 20
725.65767772
  0
VERTEX
  8
10
 10
504.70220708
 20
725.02841328
  0
VERTEX
  8
10
 10
504.79765835
 20
724.40149073
  0
VERTEX
  8
10
 10
504.90712519
 20
723.77748214
  0
VERTEX
  8
10
 10
505.03042881
 20
723.15695953
  0
VERTEX
  8
10
 10
505.16739045
 20
722.54049506
  0
VERTEX
  8
10
 10
505.31783137
 20
721.92866068
  0
VERTEX
  8
10
 10
505.48157279
 20
721.32202853
  0
VERTEX
  8
10
 10
505.65843591
 20
720.72117064
  0
VERTEX
  8
10
 10
505.84824196
 20
720.12665910
  0
VERTEX
  8
10
 10
506.05081221
 20
719.53906595
  0
VERTEX
  8
10
 10
506.26596785
 20
718.95896328
  0
VERTEX
  8
10
 10
506.49353016
 20
718.38692312
  0
VERTEX
  8
10
 10
506.73332029
 20
717.82351754
  0
VERTEX
  8
10
 10
506.98515956
 20
717.26931864
  0
VERTEX
  8
10
 10
507.24886914
 20
716.72489843
  0
VERTEX
  8
10
 10
507.52427029
 20
716.19082902
  0
VERTEX
  8
10
 10
507.81118422
 20
715.66768245
  0
VERTEX
  8
10
 10
508.10943218
 20
715.15603080
  0
VERTEX
  8
10
 10
508.41883535
 20
714.65644614
  0
VERTEX
  8
10
 10
508.73921501
 20
714.16950050
  0
VERTEX
  8
10
 10
509.07039240
 20
713.69576594
  0
VERTEX
  8
10
 10
509.41218873
 20
713.23581460
  0
VERTEX
  8
10
 10
509.76442522
 20
712.79021843
  0
VERTEX
  8
10
 10
510.12692312
 20
712.35954961
  0
VERTEX
  8
10
 10
510.49950363
 20
711.94438012
  0
VERTEX
  8
10
 10
510.97385828
 20
711.43156197
  0
VERTEX
  8
10
 10
511.55260886
 20
710.83716663
  0
VERTEX
  8
10
 10
512.14383499
 20
710.27922248
  0
VERTEX
  8
10
 10
512.74639197
 20
709.75658543
  0
VERTEX
  8
10
 10
513.35913516
 20
709.26811132
  0
VERTEX
  8
10
 10
513.98091994
 20
708.81265602
  0
VERTEX
  8
10
 10
514.61060159
 20
708.38907540
  0
VERTEX
  8
10
 10
515.24703549
 20
707.99622533
  0
VERTEX
  8
10
 10
515.88907697
 20
707.63296173
  0
VERTEX
  8
10
 10
516.53558140
 20
707.29814040
  0
VERTEX
  8
10
 10
517.18540414
 20
706.99061728
  0
VERTEX
  8
10
 10
517.83740049
 20
706.70924821
  0
VERTEX
  8
10
 10
518.49042582
 20
706.45288906
  0
VERTEX
  8
10
 10
519.14333549
 20
706.22039570
  0
VERTEX
  8
10
 10
519.79498481
 20
706.01062398
  0
VERTEX
  8
10
 10
520.44422917
 20
705.82242983
  0
VERTEX
  8
10
 10
521.08992388
 20
705.65466910
  0
VERTEX
  8
10
 10
521.73092429
 20
705.50619762
  0
VERTEX
  8
10
 10
522.36608578
 20
705.37587130
  0
VERTEX
  8
10
 10
522.99426364
 20
705.26254605
  0
VERTEX
  8
10
 10
523.61431328
 20
705.16507764
  0
VERTEX
  8
10
 10
524.22509000
 20
705.08232204
  0
VERTEX
  8
10
 10
524.82544919
 20
705.01313506
  0
VERTEX
  8
10
 10
525.41424611
 20
704.95637260
  0
VERTEX
  8
10
 10
525.99033622
 20
704.91089054
  0
VERTEX
  8
10
 10
526.55257480
 20
704.87554473
  0
VERTEX
  8
10
 10
527.09981718
 20
704.84919105
  0
VERTEX
  8
10
 10
527.63091873
 20
704.83068540
  0
VERTEX
  8
10
 10
528.14473482
 20
704.81888360
  0
VERTEX
  8
10
 10
528.64012079
 20
704.81264153
  0
VERTEX
  8
10
 10
529.11593192
 20
704.81081510
  0
VERTEX
  8
10
 10
530.65015935
 20
704.83335204
  0
VERTEX
  8
10
 10
532.12675708
 20
704.89950885
  0
VERTEX
  8
10
 10
533.54701441
 20
705.00710456
  0
VERTEX
  8
10
 10
534.62725204
 20
705.12330442
  0
VERTEX
  8
10
 10
535.98045829
 20
705.32559586
  0
VERTEX
  8
10
 10
537.33366454
 20
705.55695732
  0
SEQEND
  8
10
  0
POLYLINE
  8
10
 62
     4
 66
     1
  0
VERTEX
  8
10
 10
738.79035413
 20
705.55695732
  0
VERTEX
  8
10
 10
740.14356038
 20
705.83594070
  0
VERTEX
  8
10
 10
741.49676663
 20
706.14399410
  0
VERTEX
  8
10
 10
742.41429712
 20
706.40075973
  0
VERTEX
  8
10
 10
743.47627044
 20
706.73735979
  0
VERTEX
  8
10
 10
744.49221735
 20
707.09795079
  0
VERTEX
  8
10
 10
745.46342704
 20
707.48035175
  0
VERTEX
  8
10
 10
746.39118882
 20
707.88238164
  0
VERTEX
  8
10
 10
747.27679187
 20
708.30185945
  0
VERTEX
  8
10
 10
748.12152550
 20
708.73660427
  0
VERTEX
  8
10
 10
748.92667892
 20
709.18443504
  0
VERTEX
  8
10
 10
749.69354137
 20
709.64317076
  0
VERTEX
  8
10
 10
750.42340211
 20
710.11063049
  0
VERTEX
  8
10
 10
751.11755037
 20
710.58463316
  0
VERTEX
  8
10
 10
751.77727544
 20
711.06299785
  0
VERTEX
  8
10
 10
752.40386655
 20
711.54354351
  0
VERTEX
  8
10
 10
752.99861293
 20
712.02408920
  0
VERTEX
  8
10
 10
753.56280384
 20
712.50245386
  0
VERTEX
  8
10
 10
754.09772851
 20
712.97645656
  0
VERTEX
  8
10
 10
754.60467623
 20
713.44391629
  0
VERTEX
  8
10
 10
755.08493620
 20
713.90265202
  0
VERTEX
  8
10
 10
755.53979768
 20
714.35048278
  0
VERTEX
  8
10
 10
755.97054994
 20
714.78522757
  0
VERTEX
  8
10
 10
756.37848219
 20
715.20470541
  0
VERTEX
  8
10
 10
756.76488370
 20
715.60673530
  0
VERTEX
  8
10
 10
756.93421700
 20
715.48739727
  0
VERTEX
  8
10
 10
756.90491038
 20
714.87743879
  0
VERTEX
  8
10
 10
756.88079228
 20
714.28915330
  0
VERTEX
  8
10
 10
756.86315141
 20
713.72247087
  0
VERTEX
  8
10
 10
756.85327654
 20
713.17732152
  0
VERTEX
  8
10
 10
756.85245635
 20
712.65363536
  0
VERTEX
  8
10
 10
756.86197961
 20
712.15134245
  0
VERTEX
  8
10
 10
756.88313502
 20
711.67037285
  0
VERTEX
  8
10
 10
756.91721124
 20
711.21065665
  0
VERTEX
  8
10
 10
756.96549710
 20
710.77212389
  0
VERTEX
  8
10
 10
757.02928126
 20
710.35470465
  0
VERTEX
  8
10
 10
757.10985242
 20
709.95832904
  0
VERTEX
  8
10
 10
757.20849935
 20
709.58292707
  0
VERTEX
  8
10
 10
757.32651074
 20
709.22842885
  0
VERTEX
  8
10
 10
757.46517533
 20
708.89476442
  0
VERTEX
  8
10
 10
757.62578186
 20
708.58186384
  0
VERTEX
  8
10
 10
757.80961901
 20
708.28965725
  0
VERTEX
  8
10
 10
758.01797549
 20
708.01807463
  0
VERTEX
  8
10
 10
758.25214008
 20
707.76704611
  0
VERTEX
  8
10
 10
758.51340144
 20
707.53650173
  0
VERTEX
  8
10
 10
758.80304835
 20
707.32637157
  0
VERTEX
  8
10
 10
759.12236948
 20
707.13658569
  0
VERTEX
  8
10
 10
759.47265359
 20
706.96707420
  0
VERTEX
  8
10
 10
759.85518937
 20
706.81776712
  0
VERTEX
  8
10
 10
760.27126558
 20
706.68859453
  0
VERTEX
  8
10
 10
760.72217090
 20
706.57948652
  0
VERTEX
  8
10
 10
761.20919405
 20
706.49037312
  0
VERTEX
  8
10
 10
761.73362379
 20
706.42118445
  0
VERTEX
  8
10
 10
762.29674885
 20
706.37185055
  0
VERTEX
  8
10
 10
762.89985790
 20
706.34230147
  0
VERTEX
  8
10
 10
763.54423967
 20
706.33246734
  0
VERTEX
  8
10
 10
770.47621095
 20
706.33422005
  0
VERTEX
  8
10
 10
770.47621095
 20
708.53040945
  0
VERTEX
  8
10
 10
770.15256043
 20
708.66626573
  0
VERTEX
  8
10
 10
769.84694255
 20
708.80811076
  0
VERTEX
  8
10
 10
769.55881939
 20
708.95648095
  0
VERTEX
  8
10
 10
769.28765313
 20
709.11191253
  0
VERTEX
  8
10
 10
769.03290581
 20
709.27494180
  0
VERTEX
  8
10
 10
768.79403958
 20
709.44610514
  0
VERTEX
  8
10
 10
768.57051654
 20
709.62593882
  0
VERTEX
  8
10
 10
768.36179884
 20
709.81497917
  0
VERTEX
  8
10
 10
768.16734855
 20
710.01376246
  0
VERTEX
  8
10
 10
767.98662778
 20
710.22282503
  0
VERTEX
  8
10
 10
767.81909864
 20
710.44270319
  0
VERTEX
  8
10
 10
767.66422332
 20
710.67393326
  0
VERTEX
  8
10
 10
767.52146382
 20
710.91705152
  0
VERTEX
  8
10
 10
767.39028234
 20
711.17259427
  0
VERTEX
  8
10
 10
767.27014094
 20
711.44109789
  0
VERTEX
  8
10
 10
767.16050179
 20
711.72309860
  0
VERTEX
  8
10
 10
767.06082692
 20
712.01913279
  0
VERTEX
  8
10
 10
766.97057850
 20
712.32973671
  0
VERTEX
  8
10
 10
766.88921861
 20
712.65544674
  0
VERTEX
  8
10
 10
766.81620942
 20
712.99679908
  0
VERTEX
  8
10
 10
766.75101299
 20
713.35433017
  0
VERTEX
  8
10
 10
766.69309143
 20
713.72857621
  0
VERTEX
  8
10
 10
766.64190689
 20
714.12007358
  0
VERTEX
  8
10
 10
766.59692148
 20
714.52935853
  0
VERTEX
  8
10
 10
766.55759727
 20
714.95696745
  0
VERTEX
  8
10
 10
766.52339637
 20
715.40343656
  0
VERTEX
  8
10
 10
766.49378096
 20
715.86930224
  0
VERTEX
  8
10
 10
766.46821312
 20
716.35510079
  0
VERTEX
  8
10
 10
766.44615492
 20
716.86136849
  0
VERTEX
  8
10
 10
766.42706855
 20
717.38864166
  0
VERTEX
  8
10
 10
766.41833687
 20
717.66625307
  0
VERTEX
  8
10
 10
766.24939921
 20
725.09702524
  0
VERTEX
  8
10
 10
766.75621215
 20
746.38565330
  0
VERTEX
  8
10
 10
766.75661663
 20
746.41841713
  0
VERTEX
  8
10
 10
766.75661663
 20
766.18412198
  0
VERTEX
  8
10
 10
766.74033504
 20
766.78853530
  0
VERTEX
  8
10
 10
766.72396359
 20
767.40405809
  0
VERTEX
  8
10
 10
766.70632178
 20
768.02979643
  0
VERTEX
  8
10
 10
766.68622927
 20
768.66485634
  0
VERTEX
  8
10
 10
766.66250561
 20
769.30834376
  0
VERTEX
  8
10
 10
766.63397039
 20
769.95936476
  0
VERTEX
  8
10
 10
766.59944324
 20
770.61702538
  0
VERTEX
  8
10
 10
766.55774374
 20
771.28043160
  0
VERTEX
  8
10
 10
766.50769149
 20
771.94868949
  0
VERTEX
  8
10
 10
766.44810603
 20
772.62090501
  0
VERTEX
  8
10
 10
766.37780700
 20
773.29618420
  0
VERTEX
  8
10
 10
766.29561401
 20
773.97363306
  0
VERTEX
  8
10
 10
766.20034660
 20
774.65235765
  0
VERTEX
  8
10
 10
766.09082440
 20
775.33146395
  0
VERTEX
  8
10
 10
765.96586695
 20
776.01005802
  0
VERTEX
  8
10
 10
765.82429394
 20
776.68724584
  0
VERTEX
  8
10
 10
765.66492485
 20
777.36213342
  0
VERTEX
  8
10
 10
765.48657934
 20
778.03382683
  0
VERTEX
  8
10
 10
765.28807697
 20
778.70143203
  0
VERTEX
  8
10
 10
765.06823740
 20
779.36405510
  0
VERTEX
  8
10
 10
764.82588014
 20
780.02080203
  0
VERTEX
  8
10
 10
764.55982482
 20
780.67077882
  0
VERTEX
  8
10
 10
764.26889100
 20
781.31309148
  0
VERTEX
  8
10
 10
763.95189832
 20
781.94684611
  0
VERTEX
  8
10
 10
763.60766636
 20
782.57114860
  0
VERTEX
  8
10
 10
763.23501468
 20
783.18510510
  0
VERTEX
  8
10
 10
762.83276290
 20
783.78782154
  0
VERTEX
  8
10
 10
762.39973062
 20
784.37840398
  0
VERTEX
  8
10
 10
761.93473742
 20
784.95595839
  0
VERTEX
  8
10
 10
761.43660285
 20
785.51959088
  0
VERTEX
  8
10
 10
760.94710452
 20
786.03450502
  0
VERTEX
  8
10
 10
760.47274966
 20
786.49711619
  0
VERTEX
  8
10
 10
759.97387015
 20
786.94048887
  0
VERTEX
  8
10
 10
759.45157493
 20
787.36487272
  0
VERTEX
  8
10
 10
758.90697289
 20
787.77051733
  0
VERTEX
  8
10
 10
758.34117297
 20
788.15767231
  0
VERTEX
  8
10
 10
757.75528399
 20
788.52658730
  0
VERTEX
  8
10
 10
757.15041494
 20
788.87751193
  0
VERTEX
  8
10
 10
756.52767462
 20
789.21069577
  0
VERTEX
  8
10
 10
755.88817201
 20
789.52638851
  0
VERTEX
  8
10
 10
755.23301598
 20
789.82483973
  0
VERTEX
  8
10
 10
754.56331546
 20
790.10629909
  0
VERTEX
  8
10
 10
753.88017928
 20
790.37101615
  0
VERTEX
  8
10
 10
753.18471643
 20
790.61924054
  0
VERTEX
  8
10
 10
752.47803571
 20
790.85122192
  0
VERTEX
  8
10
 10
751.76124611
 20
791.06720991
  0
VERTEX
  8
10
 10
751.03545647
 20
791.26745409
  0
VERTEX
  8
10
 10
750.30177572
 20
791.45220409
  0
VERTEX
  8
10
 10
749.56131277
 20
791.62170959
  0
VERTEX
  8
10
 10
748.81517646
 20
791.77622012
  0
VERTEX
  8
10
 10
748.06447576
 20
791.91598536
  0
VERTEX
  8
10
 10
747.31031956
 20
792.04125491
  0
VERTEX
  8
10
 10
746.55381671
 20
792.15227841
  0
VERTEX
  8
10
 10
745.79607614
 20
792.24930547
  0
VERTEX
  8
10
 10
745.03820677
 20
792.33258571
  0
VERTEX
  8
10
 10
744.28131745
 20
792.40236876
  0
VERTEX
  8
10
 10
743.52651715
 20
792.45890420
  0
VERTEX
  8
10
 10
742.77491472
 20
792.50244168
  0
VERTEX
  8
10
 10
742.02761905
 20
792.53323084
  0
VERTEX
  8
10
 10
741.28573906
 20
792.55152128
  0
VERTEX
  8
10
 10
740.55038365
 20
792.55756264
  0
VERTEX
  8
10
 10
739.32603623
 20
792.53967369
  0
VERTEX
  8
10
 10
738.05243243
 20
792.48424293
  0
VERTEX
  8
10
 10
736.73589912
 20
792.38862440
  0
VERTEX
  8
10
 10
735.38276320
 20
792.25017217
  0
VERTEX
  8
10
 10
733.99935147
 20
792.06624033
  0
VERTEX
  8
10
 10
732.59199092
 20
791.83418296
  0
VERTEX
  8
10
 10
731.16700837
 20
791.55135413
  0
VERTEX
  8
10
 10
729.73073070
 20
791.21510792
  0
VERTEX
  8
10
 10
728.28948478
 20
790.82279835
  0
VERTEX
  8
10
 10
726.84959755
 20
790.37177954
  0
VERTEX
  8
10
 10
725.41739585
 20
789.85940556
  0
VERTEX
  8
10
 10
723.99920654
 20
789.28303046
  0
VERTEX
  8
10
 10
722.60135654
 20
788.64000835
  0
VERTEX
  8
10
 10
721.23017271
 20
787.92769325
  0
VERTEX
  8
10
 10
719.89198196
 20
787.14343928
  0
VERTEX
  8
10
 10
718.59311109
 20
786.28460052
  0
VERTEX
  8
10
 10
717.33988708
 20
785.34853100
  0
VERTEX
  8
10
 10
716.13863676
 20
784.33258477
  0
VERTEX
  8
10
 10
714.99568701
 20
783.23411599
  0
VERTEX
  8
10
 10
713.91736473
 20
782.05047868
  0
VERTEX
  8
10
 10
712.90999675
 20
780.77902691
  0
VERTEX
  8
10
 10
711.97991002
 20
779.41711475
  0
VERTEX
  8
10
 10
711.13343137
 20
777.96209629
  0
VERTEX
  8
10
 10
710.37688771
 20
776.41132561
  0
VERTEX
  8
10
 10
709.71660595
 20
774.76215673
  0
VERTEX
  8
10
 10
709.15891288
 20
773.01194380
  0
VERTEX
  8
10
 10
708.71013545
 20
771.15804084
  0
VERTEX
  8
10
 10
708.37660050
 20
769.19780193
  0
VERTEX
  8
10
 10
708.16463496
 20
767.12858116
  0
VERTEX
  8
10
 10
708.08056566
 20
764.94773257
  0
VERTEX
  8
10
 10
708.09655663
 20
763.81462103
  0
VERTEX
  8
10
 10
718.23033115
 20
763.81462103
  0
VERTEX
  8
10
 10
718.24791702
 20
764.39278287
  0
VERTEX
  8
10
 10
718.26983438
 20
765.02578623
  0
VERTEX
  8
10
 10
718.30044679
 20
765.70851931
  0
VERTEX
  8
10
 10
718.34411782
 20
766.43587037
  0
VERTEX
  8
10
 10
718.40521104
 20
767.20272763
  0
VERTEX
  8
10
 10
718.48809002
 20
768.00397935
  0
VERTEX
  8
10
 10
718.59711831
 20
768.83451369
  0
VERTEX
  8
10
 10
718.73665950
 20
769.68921893
  0
VERTEX
  8
10
 10
718.91107714
 20
770.56298326
  0
VERTEX
  8
10
 10
719.12473477
 20
771.45069497
  0
VERTEX
  8
10
 10
719.38199598
 20
772.34724221
  0
VERTEX
  8
10
 10
719.68722435
 20
773.24751330
  0
VERTEX
  8
10
 10
720.04478345
 20
774.14639643
  0
VERTEX
  8
10
 10
720.45903680
 20
775.03877980
  0
VERTEX
  8
10
 10
720.93434800
 20
775.91955165
  0
VERTEX
  8
10
 10
721.47508060
 20
776.78360026
  0
VERTEX
  8
10
 10
722.08559818
 20
777.62581382
  0
VERTEX
  8
10
 10
722.77026428
 20
778.44108053
  0
VERTEX
  8
10
 10
723.53344248
 20
779.22428866
  0
VERTEX
  8
10
 10
724.37949636
 20
779.97032646
  0
VERTEX
  8
10
 10
725.31278951
 20
780.67408212
  0
VERTEX
  8
10
 10
726.33768540
 20
781.33044388
  0
VERTEX
  8
10
 10
727.45854769
 20
781.93429997
  0
VERTEX
  8
10
 10
728.67973990
 20
782.48053863
  0
VERTEX
  8
10
 10
730.00562560
 20
782.96404807
  0
VERTEX
  8
10
 10
731.44056836
 20
783.37971655
  0
VERTEX
  8
10
 10
732.98893174
 20
783.72243227
  0
VERTEX
  8
10
 10
734.65507932
 20
783.98708343
  0
VERTEX
  8
10
 10
736.44337465
 20
784.16855835
  0
VERTEX
  8
10
 10
738.35818130
 20
784.26174518
  0
VERTEX
  8
10
 10
740.20687640
 20
784.26443197
  0
VERTEX
  8
10
 10
741.80946777
 20
784.19202890
  0
VERTEX
  8
10
 10
743.30531639
 20
784.05030609
  0
VERTEX
  8
10
 10
744.69814117
 20
783.84248082
  0
VERTEX
  8
10
 10
745.99166102
 20
783.57177043
  0
VERTEX
  8
10
 10
747.18959498
 20
783.24139227
  0
VERTEX
  8
10
 10
748.29566189
 20
782.85456369
  0
VERTEX
  8
10
 10
749.31358072
 20
782.41450199
  0
VERTEX
  8
10
 10
750.24707042
 20
781.92442452
  0
VERTEX
  8
10
 10
751.09984996
 20
781.38754861
  0
VERTEX
  8
10
 10
751.87563827
 20
780.80709161
  0
VERTEX
  8
10
 10
752.57815425
 20
780.18627083
  0
VERTEX
  8
10
 10
753.21111687
 20
779.52830363
  0
VERTEX
  8
10
 10
753.77824510
 20
778.83640732
  0
VERTEX
  8
10
 10
754.28325785
 20
778.11379926
  0
VERTEX
  8
10
 10
754.72987404
 20
777.36369676
  0
VERTEX
  8
10
 10
755.12181262
 20
776.58931715
  0
VERTEX
  8
10
 10
755.46279260
 20
775.79387780
  0
VERTEX
  8
10
 10
755.75653286
 20
774.98059601
  0
VERTEX
  8
10
 10
756.00675232
 20
774.15268913
  0
VERTEX
  8
10
 10
756.21716997
 20
773.31337446
  0
VERTEX
  8
10
 10
756.39150476
 20
772.46586940
  0
VERTEX
  8
10
 10
756.53347558
 20
771.61339121
  0
VERTEX
  8
10
 10
756.64680141
 20
770.75915728
  0
VERTEX
  8
10
 10
756.73520118
 20
769.90638497
  0
VERTEX
  8
10
 10
756.80239382
 20
769.05829153
  0
VERTEX
  8
10
 10
756.85209831
 20
768.21809432
  0
VERTEX
  8
10
 10
756.88803355
 20
767.38901072
  0
VERTEX
  8
10
 10
756.91391851
 20
766.57425801
  0
VERTEX
  8
10
 10
756.93347213
 20
765.77705354
  0
VERTEX
  8
10
 10
756.95041333
 20
765.00061468
  0
VERTEX
  8
10
 10
756.93854896
 20
757.05285833
  0
VERTEX
  8
10
 10
742.07203590
 20
755.36099749
  0
VERTEX
  8
10
 10
741.49676663
 20
755.28888564
  0
VERTEX
  8
10
 10
738.79715825
 20
754.95569423
  0
VERTEX
  8
10
 10
736.08394163
 20
754.57171616
  0
VERTEX
  8
10
 10
735.83893386
 20
754.53692130
  0
VERTEX
  8
10
 10
734.83330795
 20
754.38813945
  0
VERTEX
  8
10
 10
733.83831881
 20
754.23408944
  0
VERTEX
  8
10
 10
732.85439558
 20
754.07402091
  0
VERTEX
  8
10
 10
731.88196721
 20
753.90718357
  0
VERTEX
  8
10
 10
730.92146286
 20
753.73282709
  0
VERTEX
  8
10
 10
729.97331147
 20
753.55020119
  0
VERTEX
  8
10
 10
729.03794215
 20
753.35855558
  0
VERTEX
  8
10
 10
728.11578391
 20
753.15713992
  0
VERTEX
  8
10
 10
727.20726584
 20
752.94520390
  0
VERTEX
  8
10
 10
726.31281697
 20
752.72199722
  0
VERTEX
  8
10
 10
725.43286635
 20
752.48676959
  0
VERTEX
  8
10
 10
724.56784301
 20
752.23877066
  0
VERTEX
  8
10
 10
723.71817602
 20
751.97725016
  0
VERTEX
  8
10
 10
722.88429443
 20
751.70145774
  0
VERTEX
  8
10
 10
722.06662727
 20
751.41064315
  0
VERTEX
  8
10
 10
721.26560362
 20
751.10405605
  0
VERTEX
  8
10
 10
720.48165248
 20
750.78094612
  0
VERTEX
  8
10
 10
719.71520292
 20
750.44056307
  0
VERTEX
  8
10
 10
718.96668399
 20
750.08215658
  0
VERTEX
  8
10
 10
718.23652475
 20
749.70497636
  0
VERTEX
  8
10
 10
717.52515426
 20
749.30827211
  0
VERTEX
  8
10
 10
716.83300150
 20
748.89129348
  0
VERTEX
  8
10
 10
716.16049559
 20
748.45329017
  0
VERTEX
  8
10
 10
715.50806553
 20
747.99351189
  0
VERTEX
  8
10
 10
714.98902624
 20
747.61127407
  0
VERTEX
  8
10
 10
714.58300677
 20
747.30776582
  0
VERTEX
  8
10
 10
714.17139185
 20
746.98332362
  0
VERTEX
  8
10
 10
713.75554006
 20
746.63780441
  0
VERTEX
  8
10
 10
713.33681005
 20
746.27106520
  0
VERTEX
  8
10
 10
712.91656052
 20
745.88296298
  0
VERTEX
  8
10
 10
712.49615012
 20
745.47335474
  0
VERTEX
  8
10
 10
712.07693743
 20
745.04209743
  0
VERTEX
  8
10
 10
711.66028119
 20
744.58904809
  0
VERTEX
  8
10
 10
711.24754000
 20
744.11406364
  0
VERTEX
  8
10
 10
710.84007253
 20
743.61700111
  0
VERTEX
  8
10
 10
710.43923739
 20
743.09771748
  0
VERTEX
  8
10
 10
710.04639332
 20
742.55606969
  0
VERTEX
  8
10
 10
709.66289889
 20
741.99191479
  0
VERTEX
  8
10
 10
709.29011280
 20
741.40510971
  0
VERTEX
  8
10
 10
708.92939366
 20
740.79551148
  0
VERTEX
  8
10
 10
708.58210017
 20
740.16297705
  0
VERTEX
  8
10
 10
708.24959094
 20
739.50736338
  0
VERTEX
  8
10
 10
707.93322467
 20
738.82852754
  0
VERTEX
  8
10
 10
707.63435998
 20
738.12632644
  0
VERTEX
  8
10
 10
707.35435551
 20
737.40061709
  0
VERTEX
  8
10
 10
707.09456990
 20
736.65125643
  0
VERTEX
  8
10
 10
706.85636187
 20
735.87810153
  0
VERTEX
  8
10
 10
706.64109003
 20
735.08100932
  0
VERTEX
  8
10
 10
706.45011300
 20
734.25983678
  0
VERTEX
  8
10
 10
706.28478949
 20
733.41444088
  0
VERTEX
  8
10
 10
706.14647813
 20
732.54467868
  0
VERTEX
  8
10
 10
706.03653756
 20
731.65040709
  0
VERTEX
  8
10
 10
705.95632645
 20
730.73148309
  0
VERTEX
  8
10
 10
705.90720341
 20
729.78776373
  0
VERTEX
  8
10
 10
705.89052718
 20
728.81910596
  0
VERTEX
  8
10
 10
705.89813086
 20
728.18671302
  0
VERTEX
  8
10
 10
705.92082272
 20
727.55380168
  0
VERTEX
  8
10
 10
705.95842400
 20
726.92094400
  0
VERTEX
  8
10
 10
706.01075595
 20
726.28871196
  0
VERTEX
  8
10
 10
706.07763977
 20
725.65767772
  0
VERTEX
  8
10
 10
706.15889667
 20
725.02841328
  0
VERTEX
  8
10
 10
706.25434794
 20
724.40149073
  0
VERTEX
  8
10
 10
706.36381478
 20
723.77748214
  0
VERTEX
  8
10
 10
706.48711839
 20
723.15695953
  0
VERTEX
  8
10
 10
706.62408004
 20
722.54049506
  0
VERTEX
  8
10
 10
706.77452096
 20
721.92866068
  0
VERTEX
  8
10
 10
706.93826238
 20
721.32202853
  0
VERTEX
  8
10
 10
707.11512550
 20
720.72117064
  0
VERTEX
  8
10
 10
707.30493155
 20
720.12665910
  0
VERTEX
  8
10
 10
707.50750180
 20
719.53906595
  0
VERTEX
  8
10
 10
707.72265744
 20
718.95896328
  0
VERTEX
  8
10
 10
707.95021975
 20
718.38692312
  0
VERTEX
  8
10
 10
708.19000988
 20
717.82351754
  0
VERTEX
  8
10
 10
708.44184914
 20
717.26931864
  0
VERTEX
  8
10
 10
708.70555873
 20
716.72489843
  0
VERTEX
  8
10
 10
708.98095987
 20
716.19082902
  0
VERTEX
  8
10
 10
709.26787381
 20
715.66768245
  0
VERTEX
  8
10
 10
709.56612176
 20
715.15603080
  0
VERTEX
  8
10
 10
709.87552494
 20
714.65644614
  0
VERTEX
  8
10
 10
710.19590460
 20
714.16950050
  0
VERTEX
  8
10
 10
710.52708199
 20
713.69576594
  0
VERTEX
  8
10
 10
710.86887832
 20
713.23581460
  0
VERTEX
  8
10
 10
711.22111480
 20
712.79021843
  0
VERTEX
  8
10
 10
711.58361270
 20
712.35954961
  0
VERTEX
  8
10
 10
711.95619322
 20
711.94438012
  0
VERTEX
  8
10
 10
712.43054787
 20
711.43156197
  0
VERTEX
  8
10
 10
713.00929845
 20
710.83716663
  0
VERTEX
  8
10
 10
713.60052458
 20
710.27922248
  0
VERTEX
  8
10
 10
714.20308156
 20
709.75658543
  0
VERTEX
  8
10
 10
714.81582475
 20
709.26811132
  0
VERTEX
  8
10
 10
715.43760953
 20
708.81265602
  0
VERTEX
  8
10
 10
716.06729118
 20
708.38907540
  0
VERTEX
  8
10
 10
716.70372508
 20
707.99622533
  0
VERTEX
  8
10
 10
717.34576656
 20
707.63296173
  0
VERTEX
  8
10
 10
717.99227099
 20
707.29814040
  0
VERTEX
  8
10
 10
718.64209373
 20
706.99061728
  0
VERTEX
  8
10
 10
719.29409008
 20
706.70924821
  0
VERTEX
  8
10
 10
719.94711541
 20
706.45288906
  0
VERTEX
  8
10
 10
720.60002508
 20
706.22039570
  0
VERTEX
  8
10
 10
721.25167440
 20
706.01062398
  0
VERTEX
  8
10
 10
721.90091876
 20
705.82242983
  0
VERTEX
  8
10
 10
722.54661346
 20
705.65466910
  0
VERTEX
  8
10
 10
723.18761388
 20
705.50619762
  0
VERTEX
  8
10
 10
723.82277537
 20
705.37587130
  0
VERTEX
  8
10
 10
724.45095323
 20
705.26254605
  0
VERTEX
  8
10
 10
725.07100287
 20
705.16507764
  0
VERTEX
  8
10
 10
725.68177959
 20
705.08232204
  0
VERTEX
  8
10
 10
726.28213878
 20
705.01313506
  0
VERTEX
  8
10
 10
726.87093570
 20
704.95637260
  0
VERTEX
  8
10
 10
727.44702581
 20
704.91089054
  0
VERTEX
  8
10
 10
728.00926438
 20
704.87554473
  0
VERTEX
  8
10
 10
728.55650677
 20
704.84919105
  0
VERTEX
  8
10
 10
729.08760832
 20
704.83068540
  0
VERTEX
  8
10
 10
729.60142441
 20
704.81888360
  0
VERTEX
  8
10
 10
730.09681038
 20
704.81264153
  0
VERTEX
  8
10
 10
730.57262151
 20
704.81081510
  0
VERTEX
  8
10
 10
732.10684894
 20
704.83335204
  0
VERTEX
  8
10
 10
733.58344667
 20
704.89950885
  0
VERTEX
  8
10
 10
735.00370400
 20
705.00710456
  0
VERTEX
  8
10
 10
736.08394163
 20
705.12330442
  0
VERTEX
  8
10
 10
737.43714788
 20
705.32559586
  0
VERTEX
  8
10
 10
738.79035413
 20
705.55695732
  0
SEQEND
  8
10
  0
POLYLINE
  8
10
 62
     4
 66
     1
  0
VERTEX
  8
10
 10
483.64950205
 20
764.92150664
  0
VERTEX
  8
10
 10
483.63221612
 20
765.56968648
  0
VERTEX
  8
10
 10
483.61285149
 20
766.22469900
  0
VERTEX
  8
10
 10
483.59035308
 20
766.88594670
  0
VERTEX
  8
10
 10
483.56366579
 20
767.55283197
  0
VERTEX
  8
10
 10
483.53173457
 20
768.22475722
  0
VERTEX
  8
10
 10
483.49350422
 20
768.90112492
  0
VERTEX
  8
10
 10
483.44791971
 20
769.58133746
  0
VERTEX
  8
10
 10
483.39392595
 20
770.26479727
  0
VERTEX
  8
10
 10
483.33046783
 20
770.95090679
  0
VERTEX
  8
10
 10
483.25649025
 20
771.63906846
  0
VERTEX
  8
10
 10
483.17093810
 20
772.32868467
  0
VERTEX
  8
10
 10
483.07275627
 20
773.01915787
  0
VERTEX
  8
10
 10
482.96088974
 20
773.70989045
  0
VERTEX
  8
10
 10
482.83428333
 20
774.40028491
  0
VERTEX
  8
10
 10
482.69188197
 20
775.08974361
  0
VERTEX
  8
10
 10
482.53263056
 20
775.77766899
  0
VERTEX
  8
10
 10
482.35547400
 20
776.46346352
  0
VERTEX
  8
10
 10
482.15935724
 20
777.14652956
  0
VERTEX
  8
10
 10
481.94322513
 20
777.82626956
  0
VERTEX
  8
10
 10
481.70602258
 20
778.50208599
  0
VERTEX
  8
10
 10
481.44669449
 20
779.17338123
  0
VERTEX
  8
10
 10
481.16418577
 20
779.83955770
  0
VERTEX
  8
10
 10
480.85744134
 20
780.50001783
  0
VERTEX
  8
10
 10
480.52540609
 20
781.15416408
  0
VERTEX
  8
10
 10
480.16702490
 20
781.80139884
  0
VERTEX
  8
10
 10
479.78124272
 20
782.44112457
  0
VERTEX
  8
10
 10
479.36700442
 20
783.07274369
  0
VERTEX
  8
10
 10
478.92325489
 20
783.69565859
  0
VERTEX
  8
10
 10
478.45506000
 20
784.30300340
  0
VERTEX
  8
10
 10
477.97600806
 20
784.87957701
  0
VERTEX
  8
10
 10
477.47837675
 20
785.43378000
  0
VERTEX
  8
10
 10
476.96279954
 20
785.96582353
  0
VERTEX
  8
10
 10
476.42990998
 20
786.47591881
  0
VERTEX
  8
10
 10
475.88034160
 20
786.96427694
  0
VERTEX
  8
10
 10
475.31472791
 20
787.43110917
  0
VERTEX
  8
10
 10
474.73370243
 20
787.87662664
  0
VERTEX
  8
10
 10
474.13789871
 20
788.30104051
  0
VERTEX
  8
10
 10
473.52795023
 20
788.70456199
  0
VERTEX
  8
10
 10
472.90449055
 20
789.08740223
  0
VERTEX
  8
10
 10
472.26815321
 20
789.44977242
  0
VERTEX
  8
10
 10
471.61957167
 20
789.79188375
  0
VERTEX
  8
10
 10
470.95937951
 20
790.11394734
  0
VERTEX
  8
10
 10
470.28821024
 20
790.41617441
  0
VERTEX
  8
10
 10
469.60669736
 20
790.69877609
  0
VERTEX
  8
10
 10
468.91547445
 20
790.96196363
  0
VERTEX
  8
10
 10
468.21517495
 20
791.20594812
  0
VERTEX
  8
10
 10
467.50643246
 20
791.43094078
  0
VERTEX
  8
10
 10
466.78988048
 20
791.63715281
  0
VERTEX
  8
10
 10
466.06615251
 20
791.82479532
  0
VERTEX
  8
10
 10
465.33588212
 20
791.99407955
  0
VERTEX
  8
10
 10
464.59970278
 20
792.14521663
  0
VERTEX
  8
10
 10
463.85824805
 20
792.27841773
  0
VERTEX
  8
10
 10
463.11215144
 20
792.39389408
  0
VERTEX
  8
10
 10
462.36204648
 20
792.49185679
  0
VERTEX
  8
10
 10
461.60856670
 20
792.57251705
  0
VERTEX
  8
10
 10
460.85234561
 20
792.63608606
  0
VERTEX
  8
10
 10
460.09401673
 20
792.68277499
  0
VERTEX
  8
10
 10
459.33421361
 20
792.71279499
  0
VERTEX
  8
10
 10
458.57356977
 20
792.72635726
  0
VERTEX
  8
10
 10
457.31559608
 20
792.71588514
  0
VERTEX
  8
10
 10
455.84655022
 20
792.65743543
  0
VERTEX
  8
10
 10
454.42210109
 20
792.55172354
  0
VERTEX
  8
10
 10
453.04182645
 20
792.40145799
  0
VERTEX
  8
10
 10
451.70530408
 20
792.20934734
  0
VERTEX
  8
10
 10
450.41211181
 20
791.97810009
  0
VERTEX
  8
10
 10
449.16182736
 20
791.71042482
  0
VERTEX
  8
10
 10
447.95402853
 20
791.40903003
  0
VERTEX
  8
10
 10
446.78829313
 20
791.07662433
  0
VERTEX
  8
10
 10
445.66419891
 20
790.71591623
  0
VERTEX
  8
10
 10
444.58132365
 20
790.32961428
  0
VERTEX
  8
10
 10
443.53924514
 20
789.92042701
  0
VERTEX
  8
10
 10
442.53754114
 20
789.49106297
  0
VERTEX
  8
10
 10
441.57578946
 20
789.04423069
  0
VERTEX
  8
10
 10
440.65356789
 20
788.58263876
  0
VERTEX
  8
10
 10
439.77045416
 20
788.10899568
  0
VERTEX
  8
10
 10
438.92602607
 20
787.62601003
  0
VERTEX
  8
10
 10
438.11986142
 20
787.13639031
  0
VERTEX
  8
10
 10
437.35153794
 20
786.64284510
  0
VERTEX
  8
10
 10
436.62063350
 20
786.14808291
  0
VERTEX
  8
10
 10
435.92672579
 20
785.65481234
  0
VERTEX
  8
10
 10
435.26939264
 20
785.16574188
  0
VERTEX
  8
10
 10
434.64821183
 20
784.68358010
  0
VERTEX
  8
10
 10
434.06276111
 20
784.21103553
  0
VERTEX
  8
10
 10
433.51261829
 20
783.75081672
  0
VERTEX
  8
10
 10
432.99736112
 20
783.30563222
  0
VERTEX
  8
10
 10
432.51656741
 20
782.87819056
  0
VERTEX
  8
10
 10
432.06981492
 20
782.47120028
  0
VERTEX
  8
10
 10
431.65668144
 20
782.08736997
  0
VERTEX
  8
10
 10
431.27674476
 20
781.72940813
  0
VERTEX
  8
10
 10
430.92958262
 20
781.40002329
  0
VERTEX
  8
10
 10
430.92958262
 20
834.01609915
  0
VERTEX
  8
10
 10
430.92607323
 20
834.08971834
  0
VERTEX
  8
10
 10
429.12045715
 20
834.08971834
  0
VERTEX
  8
10
 10
428.72046432
 20
834.08971834
  0
VERTEX
  8
10
 10
420.95968102
 20
834.08971834
  0
VERTEX
  8
10
 10
420.95617163
 20
833.91121311
  0
VERTEX
  8
10
 10
420.95617163
 20
706.33246788
  0
VERTEX
  8
10
 10
430.91564755
 20
706.33246788
  0
VERTEX
  8
10
 10
430.92958262
 20
706.35251677
  0
VERTEX
  8
10
 10
430.92958262
 20
763.28984165
  0
VERTEX
  8
10
 10
430.94072838
 20
763.58603071
  0
VERTEX
  8
10
 10
430.95794827
 20
764.00201902
  0
VERTEX
  8
10
 10
430.97645725
 20
764.42010937
  0
VERTEX
  8
10
 10
430.99702876
 20
764.84026620
  0
VERTEX
  8
10
 10
431.02043623
 20
765.26245396
  0
VERTEX
  8
10
 10
431.04745312
 20
765.68663710
  0
VERTEX
  8
10
 10
431.07885285
 20
766.11278001
  0
VERTEX
  8
10
 10
431.11540890
 20
766.54084717
  0
VERTEX
  8
10
 10
431.15789467
 20
766.97080302
  0
VERTEX
  8
10
 10
431.20708365
 20
767.40261196
  0
VERTEX
  8
10
 10
431.26374921
 20
767.83623846
  0
VERTEX
  8
10
 10
431.32866490
 20
768.27164693
  0
VERTEX
  8
10
 10
431.40260409
 20
768.70880187
  0
VERTEX
  8
10
 10
431.48634028
 20
769.14766763
  0
VERTEX
  8
10
 10
431.58064684
 20
769.58820872
  0
VERTEX
  8
10
 10
431.68629728
 20
770.03038954
  0
VERTEX
  8
10
 10
431.80406502
 20
770.47417450
  0
VERTEX
  8
10
 10
431.93472351
 20
770.91952814
  0
VERTEX
  8
10
 10
432.07904620
 20
771.36641480
  0
VERTEX
  8
10
 10
432.23780649
 20
771.81479893
  0
VERTEX
  8
10
 10
432.41177789
 20
772.26464503
  0
VERTEX
  8
10
 10
432.60173381
 20
772.71591745
  0
VERTEX
  8
10
 10
432.80844772
 20
773.16858071
  0
VERTEX
  8
10
 10
433.03269301
 20
773.62259919
  0
VERTEX
  8
10
 10
433.27524318
 20
774.07793736
  0
VERTEX
  8
10
 10
433.53687164
 20
774.53455967
  0
VERTEX
  8
10
 10
433.81835189
 20
774.99243050
  0
VERTEX
  8
10
 10
434.12045728
 20
775.45151435
  0
VERTEX
  8
10
 10
434.44396137
 20
775.91177559
  0
VERTEX
  8
10
 10
434.78963751
 20
776.37317876
  0
VERTEX
  8
10
 10
435.15825916
 20
776.83568820
  0
VERTEX
  8
10
 10
435.58282910
 20
777.32536609
  0
VERTEX
  8
10
 10
436.02925743
 20
777.80187771
  0
VERTEX
  8
10
 10
436.49673451
 20
778.26501277
  0
VERTEX
  8
10
 10
436.98445068
 20
778.71456102
  0
VERTEX
  8
10
 10
437.49159630
 20
779.15031220
  0
VERTEX
  8
10
 10
438.01736171
 20
779.57205599
  0
VERTEX
  8
10
 10
438.56093726
 20
779.97958218
  0
VERTEX
  8
10
 10
439.12151331
 20
780.37268047
  0
VERTEX
  8
10
 10
439.69828016
 20
780.75114061
  0
VERTEX
  8
10
 10
440.29042821
 20
781.11475229
  0
VERTEX
  8
10
 10
440.89714779
 20
781.46330531
  0
VERTEX
  8
10
 10
441.51762923
 20
781.79658933
  0
VERTEX
  8
10
 10
442.15106287
 20
782.11439411
  0
VERTEX
  8
10
 10
442.79663907
 20
782.41650935
  0
VERTEX
  8
10
 10
443.45354821
 20
782.70272485
  0
VERTEX
  8
10
 10
444.12098057
 20
782.97283030
  0
VERTEX
  8
10
 10
444.79812653
 20
783.22661540
  0
VERTEX
  8
10
 10
445.48417647
 20
783.46386995
  0
VERTEX
  8
10
 10
446.17832069
 20
783.68438361
  0
VERTEX
  8
10
 10
446.87974956
 20
783.88794617
  0
VERTEX
  8
10
 10
447.58765339
 20
784.07434730
  0
VERTEX
  8
10
 10
448.30122257
 20
784.24337680
  0
VERTEX
  8
10
 10
449.01964742
 20
784.39482432
  0
VERTEX
  8
10
 10
449.74211832
 20
784.52847967
  0
VERTEX
  8
10
 10
450.46782554
 20
784.64413255
  0
VERTEX
  8
10
 10
451.19595952
 20
784.74157267
  0
VERTEX
  8
10
 10
451.92571056
 20
784.82058978
  0
VERTEX
  8
10
 10
452.65626902
 20
784.88097359
  0
VERTEX
  8
10
 10
453.38682523
 20
784.92251388
  0
VERTEX
  8
10
 10
454.11656956
 20
784.94500035
  0
VERTEX
  8
10
 10
454.70145197
 20
784.94912247
  0
VERTEX
  8
10
 10
454.99983813
 20
784.94640786
  0
VERTEX
  8
10
 10
455.29912690
 20
784.94037379
  0
VERTEX
  8
10
 10
455.59917733
 20
784.93094873
  0
VERTEX
  8
10
 10
455.89984850
 20
784.91806119
  0
VERTEX
  8
10
 10
456.20099946
 20
784.90163958
  0
VERTEX
  8
10
 10
456.50248920
 20
784.88161249
  0
VERTEX
  8
10
 10
456.80417679
 20
784.85790832
  0
VERTEX
  8
10
 10
457.10592132
 20
784.83045562
  0
VERTEX
  8
10
 10
457.40758174
 20
784.79918285
  0
VERTEX
  8
10
 10
457.70901720
 20
784.76401850
  0
VERTEX
  8
10
 10
458.01008664
 20
784.72489107
  0
VERTEX
  8
10
 10
458.31064920
 20
784.68172902
  0
VERTEX
  8
10
 10
458.61056387
 20
784.63446084
  0
VERTEX
  8
10
 10
458.90968968
 20
784.58301504
  0
VERTEX
  8
10
 10
459.20788575
 20
784.52732010
  0
VERTEX
  8
10
 10
459.50501105
 20
784.46730454
  0
VERTEX
  8
10
 10
459.80092463
 20
784.40289679
  0
VERTEX
  8
10
 10
460.09548559
 20
784.33402538
  0
VERTEX
  8
10
 10
460.38855293
 20
784.26061874
  0
VERTEX
  8
10
 10
460.67998567
 20
784.18260542
  0
VERTEX
  8
10
 10
460.96964293
 20
784.09991391
  0
VERTEX
  8
10
 10
461.25738369
 20
784.01247265
  0
VERTEX
  8
10
 10
461.54306704
 20
783.92021014
  0
VERTEX
  8
10
 10
461.82655199
 20
783.82305492
  0
VERTEX
  8
10
 10
462.10769758
 20
783.72093540
  0
VERTEX
  8
10
 10
462.38636287
 20
783.61378013
  0
VERTEX
  8
10
 10
462.66240692
 20
783.50151756
  0
VERTEX
  8
10
 10
462.93568876
 20
783.38407618
  0
VERTEX
  8
10
 10
463.20606742
 20
783.26138451
  0
VERTEX
  8
10
 10
463.47340197
 20
783.13337098
  0
VERTEX
  8
10
 10
464.19888229
 20
782.78398276
  0
VERTEX
  8
10
 10
465.10445145
 20
782.29632912
  0
VERTEX
  8
10
 10
465.95163568
 20
781.77383732
  0
VERTEX
  8
10
 10
466.74229940
 20
781.21696458
  0
VERTEX
  8
10
 10
467.47830713
 20
780.62616826
  0
VERTEX
  8
10
 10
468.16152335
 20
780.00190553
  0
VERTEX
  8
10
 10
468.79381258
 20
779.34463373
  0
VERTEX
  8
10
 10
469.37703932
 20
778.65481007
  0
VERTEX
  8
10
 10
469.91306798
 20
777.93289182
  0
VERTEX
  8
10
 10
470.40376316
 20
777.17933630
  0
VERTEX
  8
10
 10
470.85098927
 20
776.39460070
  0
VERTEX
  8
10
 10
471.25661086
 20
775.57914234
  0
VERTEX
  8
10
 10
471.62249239
 20
774.73341845
  0
VERTEX
  8
10
 10
471.95049836
 20
773.85788629
  0
VERTEX
  8
10
 10
472.24249324
 20
772.95300319
  0
VERTEX
  8
10
 10
472.50034157
 20
772.01922632
  0
VERTEX
  8
10
 10
472.72590777
 20
771.05701303
  0
VERTEX
  8
10
 10
472.92105643
 20
770.06682052
  0
VERTEX
  8
10
 10
473.08765196
 20
769.04910607
  0
VERTEX
  8
10
 10
473.22755887
 20
768.00432699
  0
VERTEX
  8
10
 10
473.34264170
 20
766.93294052
  0
VERTEX
  8
10
 10
473.43476488
 20
765.83540390
  0
VERTEX
  8
10
 10
473.50579294
 20
764.71217440
  0
VERTEX
  8
10
 10
473.55759032
 20
763.56370931
  0
VERTEX
  8
10
 10
473.59202159
 20
762.39046588
  0
VERTEX
  8
10
 10
473.61095121
 20
761.19290137
  0
VERTEX
  8
10
 10
473.61624366
 20
759.97147306
  0
VERTEX
  8
10
 10
473.60976342
 20
758.72663820
  0
VERTEX
  8
10
 10
473.59337501
 20
757.45885405
  0
VERTEX
  8
10
 10
473.56894289
 20
756.16857788
  0
VERTEX
  8
10
 10
473.53833160
 20
754.85626701
  0
VERTEX
  8
10
 10
473.53833160
 20
706.40026640
  0
VERTEX
  8
10
 10
473.54190092
 20
706.33246788
  0
VERTEX
  8
10
 10
483.67848895
 20
706.33246788
  0
VERTEX
  8
10
 10
483.68205824
 20
706.41255048
  0
VERTEX
  8
10
 10
483.68205824
 20
763.64803545
  0
VERTEX
  8
10
 10
483.66576441
 20
764.28075713
  0
VERTEX
  8
10
 10
483.64950205
 20
764.92150664
  0
SEQEND
  8
10
  0
POLYLINE
  8
10
 62
     4
 66
     1
  0
VERTEX
  8
10
 10
686.78174565
 20
790.65144610
  0
VERTEX
  8
10
 10
667.86057697
 20
726.77340175
  0
VERTEX
  8
10
 10
667.78354616
 20
726.46728250
  0
VERTEX
  8
10
 10
667.70631554
 20
726.16252065
  0
VERTEX
  8
10
 10
667.63274247
 20
725.87467408
  0
VERTEX
  8
10
 10
667.56247112
 20
725.60239130
  0
VERTEX
  8
10
 10
667.49514564
 20
725.34432087
  0
VERTEX
  8
10
 10
667.43041021
 20
725.09911131
  0
VERTEX
  8
10
 10
667.36790897
 20
724.86541115
  0
VERTEX
  8
10
 10
667.30728616
 20
724.64186891
  0
VERTEX
  8
10
 10
667.24818590
 20
724.42713312
  0
VERTEX
  8
10
 10
667.19025236
 20
724.21985234
  0
VERTEX
  8
10
 10
667.13312974
 20
724.01867506
  0
VERTEX
  8
10
 10
667.07646215
 20
723.82224985
  0
VERTEX
  8
10
 10
667.01989384
 20
723.62922519
  0
VERTEX
  8
10
 10
666.96306895
 20
723.43824968
  0
VERTEX
  8
10
 10
666.90563163
 20
723.24797178
  0
VERTEX
  8
10
 10
666.84722605
 20
723.05704004
  0
VERTEX
  8
10
 10
666.78749640
 20
722.86410300
  0
VERTEX
  8
10
 10
666.72608685
 20
722.66780918
  0
VERTEX
  8
10
 10
666.66264158
 20
722.46680713
  0
VERTEX
  8
10
 10
666.59680474
 20
722.25974536
  0
VERTEX
  8
10
 10
666.52822049
 20
722.04527241
  0
VERTEX
  8
10
 10
666.45653304
 20
721.82203683
  0
VERTEX
  8
10
 10
666.38138653
 20
721.58868709
  0
VERTEX
  8
10
 10
666.30242511
 20
721.34387177
  0
VERTEX
  8
10
 10
666.21929303
 20
721.08623938
  0
VERTEX
  8
10
 10
666.13163439
 20
720.81443845
  0
VERTEX
  8
10
 10
666.03909334
 20
720.52711750
  0
VERTEX
  8
10
 10
665.94131415
 20
720.22292511
  0
VERTEX
  8
10
 10
665.83794089
 20
719.90050976
  0
VERTEX
  8
10
 10
665.72861777
 20
719.55852000
  0
VERTEX
  8
10
 10
665.60004842
 20
719.57249646
  0
VERTEX
  8
10
 10
665.45624236
 20
720.08442171
  0
VERTEX
  8
10
 10
665.31830612
 20
720.57779980
  0
VERTEX
  8
10
 10
665.18577678
 20
721.05408922
  0
VERTEX
  8
10
 10
665.05819137
 20
721.51474834
  0
VERTEX
  8
10
 10
664.93508695
 20
721.96123567
  0
VERTEX
  8
10
 10
664.81600061
 20
722.39500969
  0
VERTEX
  8
10
 10
664.70046935
 20
722.81752882
  0
VERTEX
  8
10
 10
664.58803025
 20
723.23025153
  0
VERTEX
  8
10
 10
664.47822038
 20
723.63463625
  0
VERTEX
  8
10
 10
664.37057679
 20
724.03214149
  0
VERTEX
  8
10
 10
664.26463651
 20
724.42422564
  0
VERTEX
  8
10
 10
664.15993660
 20
724.81234717
  0
VERTEX
  8
10
 10
663.84864976
 20
725.96752070
  0
VERTEX
  8
10
 10
663.74428190
 20
726.35437639
  0
VERTEX
  8
10
 10
663.63883975
 20
726.74456172
  0
VERTEX
  8
10
 10
663.53186024
 20
727.13953520
  0
VERTEX
  8
10
 10
663.42288055
 20
727.54075522
  0
VERTEX
  8
10
 10
663.31143767
 20
727.94968029
  0
VERTEX
  8
10
 10
663.19706864
 20
728.36776884
  0
VERTEX
  8
10
 10
663.07931054
 20
728.79647934
  0
VERTEX
  8
10
 10
662.95770042
 20
729.23727026
  0
VERTEX
  8
10
 10
662.83177531
 20
729.69160002
  0
VERTEX
  8
10
 10
662.70107233
 20
730.16092709
  0
VERTEX
  8
10
 10
662.56512847
 20
730.64670991
  0
VERTEX
  8
10
 10
662.42348083
 20
731.15040695
  0
VERTEX
  8
10
 10
662.27566643
 20
731.67347670
  0
VERTEX
  8
10
 10
662.12122233
 20
732.21737753
  0
VERTEX
  8
10
 10
661.95968559
 20
732.78356797
  0
VERTEX
  8
10
 10
661.89952529
 20
732.99071253
  0
VERTEX
  8
10
 10
645.05579494
 20
790.62387566
  0
VERTEX
  8
10
 10
645.02991164
 20
790.69714441
  0
VERTEX
  8
10
 10
636.94963440
 20
790.69714441
  0
VERTEX
  8
10
 10
636.53799494
 20
790.69714441
  0
VERTEX
  8
10
 10
634.72302888
 20
790.69714441
  0
VERTEX
  8
10
 10
634.67824826
 20
790.55993496
  0
VERTEX
  8
10
 10
615.06629878
 20
729.34052505
  0
VERTEX
  8
10
 10
614.93860220
 20
728.93983888
  0
VERTEX
  8
10
 10
614.81687426
 20
728.55494596
  0
VERTEX
  8
10
 10
614.70068696
 20
728.18463587
  0
VERTEX
  8
10
 10
614.58961243
 20
727.82769820
  0
VERTEX
  8
10
 10
614.48322274
 20
727.48292261
  0
VERTEX
  8
10
 10
614.38108988
 20
727.14909865
  0
VERTEX
  8
10
 10
614.28278598
 20
726.82501593
  0
VERTEX
  8
10
 10
614.18788306
 20
726.50946407
  0
VERTEX
  8
10
 10
614.09595319
 20
726.20123266
  0
VERTEX
  8
10
 10
614.00656844
 20
725.89911136
  0
VERTEX
  8
10
 10
613.91930085
 20
725.60188968
  0
VERTEX
  8
10
 10
613.83372250
 20
725.30835727
  0
VERTEX
  8
10
 10
613.74940545
 20
725.01730371
  0
VERTEX
  8
10
 10
613.66592175
 20
724.72751864
  0
VERTEX
  8
10
 10
613.58284347
 20
724.43779166
  0
VERTEX
  8
10
 10
613.49974268
 20
724.14691232
  0
VERTEX
  8
10
 10
613.41619140
 20
723.85367029
  0
VERTEX
  8
10
 10
613.15855543
 20
722.94766388
  0
VERTEX
  8
10
 10
613.06892291
 20
722.63286701
  0
VERTEX
  8
10
 10
612.97670025
 20
722.30965543
  0
VERTEX
  8
10
 10
612.88145950
 20
721.97681873
  0
VERTEX
  8
10
 10
612.78277269
 20
721.63314652
  0
VERTEX
  8
10
 10
612.68021189
 20
721.27742844
  0
VERTEX
  8
10
 10
612.57334919
 20
720.90845406
  0
VERTEX
  8
10
 10
612.46175663
 20
720.52501296
  0
VERTEX
  8
10
 10
612.34500628
 20
720.12589481
  0
VERTEX
  8
10
 10
612.22267020
 20
719.70988915
  0
VERTEX
  8
10
 10
612.09432046
 20
719.27578564
  0
VERTEX
  8
10
 10
611.97662013
 20
719.52738893
  0
VERTEX
  8
10
 10
611.86829323
 20
719.94283808
  0
VERTEX
  8
10
 10
611.76572965
 20
720.33513835
  0
VERTEX
  8
10
 10
611.66850225
 20
720.70592697
  0
VERTEX
  8
10
 10
611.57618385
 20
721.05684124
  0
VERTEX
  8
10
 10
611.48834734
 20
721.38951844
  0
VERTEX
  8
10
 10
611.40456554
 20
721.70559592
  0
VERTEX
  8
10
 10
611.32441127
 20
722.00671091
  0
VERTEX
  8
10
 10
611.24745743
 20
722.29450071
  0
VERTEX
  8
10
 10
611.17327686
 20
722.57060260
  0
VERTEX
  8
10
 10
611.10144240
 20
722.83665388
  0
VERTEX
  8
10
 10
611.03152685
 20
723.09429186
  0
VERTEX
  8
10
 10
610.96310311
 20
723.34515379
  0
VERTEX
  8
10
 10
610.89574404
 20
723.59087695
  0
VERTEX
  8
10
 10
610.82902246
 20
723.83309867
  0
VERTEX
  8
10
 10
610.76251122
 20
724.07345621
  0
VERTEX
  8
10
 10
610.69578314
 20
724.31358684
  0
VERTEX
  8
10
 10
610.62841111
 20
724.55512792
  0
VERTEX
  8
10
 10
610.55996796
 20
724.79971663
  0
VERTEX
  8
10
 10
610.49002654
 20
725.04899035
  0
VERTEX
  8
10
 10
610.41815970
 20
725.30458633
  0
VERTEX
  8
10
 10
610.34394031
 20
725.56814187
  0
VERTEX
  8
10
 10
610.01499380
 20
726.73470522
  0
VERTEX
  8
10
 10
609.92260424
 20
727.06261780
  0
VERTEX
  8
10
 10
609.82529915
 20
727.40831368
  0
VERTEX
  8
10
 10
609.72265142
 20
727.77343009
  0
VERTEX
  8
10
 10
609.61423391
 20
728.15960437
  0
VERTEX
  8
10
 10
609.52654582
 20
728.47238060
  0
VERTEX
  8
10
 10
592.12042310
 20
790.68334817
  0
VERTEX
  8
10
 10
592.09708148
 20
790.69714441
  0
VERTEX
  8
10
 10
592.01072369
 20
790.69714441
  0
VERTEX
  8
10
 10
580.81104538
 20
790.69714441
  0
VERTEX
  8
10
 10
580.79228515
 20
790.68516201
  0
VERTEX
  8
10
 10
605.96998809
 20
706.35936609
  0
VERTEX
  8
10
 10
605.99358447
 20
706.33246788
  0
VERTEX
  8
10
 10
616.43888165
 20
706.33246788
  0
VERTEX
  8
10
 10
616.46395930
 20
706.33737883
  0
VERTEX
  8
10
 10
636.23341776
 20
767.70402447
  0
VERTEX
  8
10
 10
636.28348802
 20
767.87521156
  0
VERTEX
  8
10
 10
636.34683384
 20
768.09711573
  0
VERTEX
  8
10
 10
636.40776089
 20
768.31180807
  0
VERTEX
  8
10
 10
636.46680557
 20
768.52085376
  0
VERTEX
  8
10
 10
636.52450423
 20
768.72581795
  0
VERTEX
  8
10
 10
636.63800897
 20
769.12976269
  0
VERTEX
  8
10
 10
636.69488780
 20
769.33187353
  0
VERTEX
  8
10
 10
636.75256607
 20
769.53616365
  0
VERTEX
  8
10
 10
636.81158019
 20
769.74419814
  0
VERTEX
  8
10
 10
636.87246646
 20
769.95754222
  0
VERTEX
  8
10
 10
636.93576129
 20
770.17776110
  0
VERTEX
  8
10
 10
637.00200106
 20
770.40641993
  0
VERTEX
  8
10
 10
637.07172211
 20
770.64508387
  0
VERTEX
  8
10
 10
637.14546077
 20
770.89531812
  0
VERTEX
  8
10
 10
637.22375349
 20
771.15868782
  0
VERTEX
  8
10
 10
637.30713658
 20
771.43675821
  0
VERTEX
  8
10
 10
637.39614645
 20
771.73109443
  0
VERTEX
  8
10
 10
637.49131939
 20
772.04326164
  0
VERTEX
  8
10
 10
637.59319186
 20
772.37482507
  0
VERTEX
  8
10
 10
637.70230016
 20
772.72734987
  0
VERTEX
  8
10
 10
637.81918066
 20
773.10240120
  0
VERTEX
  8
10
 10
637.94436978
 20
773.50154425
  0
VERTEX
  8
10
 10
638.07840381
 20
773.92634424
  0
VERTEX
  8
10
 10
638.22181917
 20
774.37836626
  0
VERTEX
  8
10
 10
638.37515223
 20
774.85917556
  0
VERTEX
  8
10
 10
638.53893930
 20
775.37033727
  0
VERTEX
  8
10
 10
638.71371682
 20
775.91341661
  0
VERTEX
  8
10
 10
638.90002110
 20
776.48997875
  0
VERTEX
  8
10
 10
639.09838854
 20
777.10158886
  0
VERTEX
  8
10
 10
639.30048852
 20
777.61888381
  0
VERTEX
  8
10
 10
639.43009552
 20
777.05355827
  0
VERTEX
  8
10
 10
639.55470831
 20
776.51146983
  0
VERTEX
  8
10
 10
639.67471847
 20
775.99105410
  0
VERTEX
  8
10
 10
639.79051763
 20
775.49074668
  0
VERTEX
  8
10
 10
639.90249747
 20
775.00898321
  0
VERTEX
  8
10
 10
640.01104951
 20
774.54419926
  0
VERTEX
  8
10
 10
640.11656546
 20
774.09483047
  0
VERTEX
  8
10
 10
640.21943689
 20
773.65931240
  0
VERTEX
  8
10
 10
640.32005546
 20
773.23608073
  0
VERTEX
  8
10
 10
640.41881278
 20
772.82357103
  0
VERTEX
  8
10
 10
640.51610044
 20
772.42021889
  0
VERTEX
  8
10
 10
640.61231008
 20
772.02445998
  0
VERTEX
  8
10
 10
640.70783338
 20
771.63472983
  0
VERTEX
  8
10
 10
640.80306186
 20
771.24946411
  0
VERTEX
  8
10
 10
640.89838723
 20
770.86709840
  0
VERTEX
  8
10
 10
640.99420105
 20
770.48606832
  0
VERTEX
  8
10
 10
641.09089500
 20
770.10480946
  0
VERTEX
  8
10
 10
641.18886067
 20
769.72175747
  0
VERTEX
  8
10
 10
641.28848967
 20
769.33534791
  0
VERTEX
  8
10
 10
641.39017363
 20
768.94401644
  0
VERTEX
  8
10
 10
641.49430419
 20
768.54619862
  0
VERTEX
  8
10
 10
641.60127294
 20
768.14033010
  0
VERTEX
  8
10
 10
641.71147153
 20
767.72484646
  0
VERTEX
  8
10
 10
641.82529158
 20
767.29818330
  0
VERTEX
  8
10
 10
641.94312474
 20
766.85877627
  0
VERTEX
  8
10
 10
642.06536257
 20
766.40506097
  0
VERTEX
  8
10
 10
642.19239670
 20
765.93547296
  0
VERTEX
  8
10
 10
642.32461880
 20
765.44844790
  0
VERTEX
  8
10
 10
642.46242045
 20
764.94242140
  0
VERTEX
  8
10
 10
642.60619331
 20
764.41582902
  0
VERTEX
  8
10
 10
642.68626206
 20
764.12593504
  0
VERTEX
  8
10
 10
659.18958810
 20
706.49617683
  0
VERTEX
  8
10
 10
659.23656402
 20
706.33246788
  0
VERTEX
  8
10
 10
669.88104132
 20
706.33246788
  0
VERTEX
  8
10
 10
669.91175780
 20
706.40683916
  0
VERTEX
  8
10
 10
696.09426774
 20
790.69714441
  0
VERTEX
  8
10
 10
686.80347934
 20
790.69714441
  0
VERTEX
  8
10
 10
686.78174565
 20
790.65144610
  0
SEQEND
  8
10
  0
POLYLINE
  8
10
 62
     4
 66
     1
  0
VERTEX
  8
10
 10
741.49676663
 20
714.12756226
  0
VERTEX
  8
10
 10
740.14356038
 20
713.79002072
  0
VERTEX
  8
10
 10
738.80877277
 20
713.51281304
  0
VERTEX
  8
10
 10
737.43714788
 20
713.24293182
  0
VERTEX
  8
10
 10
736.08394163
 20
713.04869346
  0
VERTEX
  8
10
 10
735.78055146
 20
713.01867458
  0
VERTEX
  8
10
 10
735.31280987
 20
712.98131191
  0
VERTEX
  8
10
 10
734.84932778
 20
712.95342655
  0
VERTEX
  8
10
 10
734.39064824
 20
712.93521019
  0
VERTEX
  8
10
 10
733.93731433
 20
712.92685452
  0
VERTEX
  8
10
 10
733.18179203
 20
712.93481108
  0
VERTEX
  8
10
 10
732.28484226
 20
712.97929061
  0
VERTEX
  8
10
 10
731.40268079
 20
713.06136001
  0
VERTEX
  8
10
 10
730.53629897
 20
713.18050809
  0
VERTEX
  8
10
 10
729.68668803
 20
713.33622377
  0
VERTEX
  8
10
 10
728.85483923
 20
713.52799586
  0
VERTEX
  8
10
 10
728.04174390
 20
713.75531329
  0
VERTEX
  8
10
 10
727.24839324
 20
714.01766484
  0
VERTEX
  8
10
 10
726.47577851
 20
714.31453945
  0
VERTEX
  8
10
 10
725.72489104
 20
714.64542595
  0
VERTEX
  8
10
 10
724.99672206
 20
715.00981318
  0
VERTEX
  8
10
 10
724.29226284
 20
715.40719003
  0
VERTEX
  8
10
 10
723.61250462
 20
715.83704534
  0
VERTEX
  8
10
 10
722.95843873
 20
716.29886804
  0
VERTEX
  8
10
 10
722.33105637
 20
716.79214690
  0
VERTEX
  8
10
 10
721.73134885
 20
717.31637084
  0
VERTEX
  8
10
 10
721.16030743
 20
717.87102872
  0
VERTEX
  8
10
 10
720.61892338
 20
718.45560942
  0
VERTEX
  8
10
 10
720.10818795
 20
719.06960175
  0
VERTEX
  8
10
 10
719.62909238
 20
719.71249459
  0
VERTEX
  8
10
 10
719.18262803
 20
720.38377684
  0
VERTEX
  8
10
 10
718.76978606
 20
721.08293734
  0
VERTEX
  8
10
 10
718.39155780
 20
721.80946493
  0
VERTEX
  8
10
 10
718.04893453
 20
722.56284851
  0
VERTEX
  8
10
 10
717.74290748
 20
723.34257692
  0
VERTEX
  8
10
 10
717.47446792
 20
724.14813905
  0
VERTEX
  8
10
 10
717.24460711
 20
724.97902374
  0
VERTEX
  8
10
 10
717.05431636
 20
725.83471986
  0
VERTEX
  8
10
 10
716.90458686
 20
726.71471623
  0
VERTEX
  8
10
 10
716.79640997
 20
727.61850179
  0
VERTEX
  8
10
 10
716.73077690
 20
728.54556539
  0
VERTEX
  8
10
 10
716.70867894
 20
729.49539583
  0
VERTEX
  8
10
 10
716.75194639
 20
730.80654941
  0
VERTEX
  8
10
 10
716.87876625
 20
732.05079372
  0
VERTEX
  8
10
 10
717.08466462
 20
733.22998025
  0
VERTEX
  8
10
 10
717.36516764
 20
734.34596042
  0
VERTEX
  8
10
 10
717.71580150
 20
735.40058568
  0
VERTEX
  8
10
 10
718.13209227
 20
736.39570754
  0
VERTEX
  8
10
 10
718.60956615
 20
737.33317744
  0
VERTEX
  8
10
 10
719.14374930
 20
738.21484684
  0
VERTEX
  8
10
 10
719.73016779
 20
739.04256720
  0
VERTEX
  8
10
 10
720.36434783
 20
739.81818995
  0
VERTEX
  8
10
 10
721.04181556
 20
740.54356663
  0
VERTEX
  8
10
 10
721.75809708
 20
741.22054862
  0
VERTEX
  8
10
 10
722.50871860
 20
741.85098742
  0
VERTEX
  8
10
 10
723.28920618
 20
742.43673451
  0
VERTEX
  8
10
 10
724.09508604
 20
742.97964129
  0
VERTEX
  8
10
 10
724.92188431
 20
743.48155927
  0
VERTEX
  8
10
 10
725.76512709
 20
743.94433993
  0
VERTEX
  8
10
 10
726.62034056
 20
744.36983467
  0
VERTEX
  8
10
 10
727.48305086
 20
744.75989500
  0
VERTEX
  8
10
 10
728.34878416
 20
745.11637236
  0
VERTEX
  8
10
 10
729.21306652
 20
745.44111819
  0
VERTEX
  8
10
 10
730.07142419
 20
745.73598400
  0
VERTEX
  8
10
 10
730.91938325
 20
746.00282122
  0
VERTEX
  8
10
 10
731.75246985
 20
746.24348134
  0
VERTEX
  8
10
 10
732.56621018
 20
746.45981575
  0
VERTEX
  8
10
 10
733.35613032
 20
746.65367601
  0
VERTEX
  8
10
 10
734.11775644
 20
746.82691351
  0
VERTEX
  8
10
 10
734.84661469
 20
746.98137973
  0
VERTEX
  8
10
 10
735.53823122
 20
747.11892614
  0
VERTEX
  8
10
 10
736.08394163
 20
747.22176881
  0
VERTEX
  8
10
 10
737.43714788
 20
747.47359508
  0
VERTEX
  8
10
 10
738.79035413
 20
747.68686181
  0
VERTEX
  8
10
 10
741.49676663
 20
748.09144325
  0
VERTEX
  8
10
 10
742.12970006
 20
748.18487002
  0
VERTEX
  8
10
 10
742.79181803
 20
748.28112856
  0
VERTEX
  8
10
 10
743.45010953
 20
748.37535992
  0
VERTEX
  8
10
 10
744.10447778
 20
748.46756364
  0
VERTEX
  8
10
 10
744.75482600
 20
748.55773925
  0
VERTEX
  8
10
 10
745.40105740
 20
748.64588631
  0
VERTEX
  8
10
 10
746.04307521
 20
748.73200432
  0
VERTEX
  8
10
 10
746.68078264
 20
748.81609281
  0
VERTEX
  8
10
 10
747.31408295
 20
748.89815131
  0
VERTEX
  8
10
 10
747.94287932
 20
748.97817935
  0
VERTEX
  8
10
 10
748.56707500
 20
749.05617650
  0
VERTEX
  8
10
 10
749.18657322
 20
749.13214221
  0
VERTEX
  8
10
 10
749.80127716
 20
749.20607610
  0
VERTEX
  8
10
 10
750.41109006
 20
749.27797765
  0
VERTEX
  8
10
 10
751.01591516
 20
749.34784639
  0
VERTEX
  8
10
 10
751.61565566
 20
749.41568186
  0
VERTEX
  8
10
 10
752.21021483
 20
749.48148359
  0
VERTEX
  8
10
 10
752.79949581
 20
749.54525111
  0
VERTEX
  8
10
 10
753.38340189
 20
749.60698391
  0
VERTEX
  8
10
 10
753.96183625
 20
749.66668160
  0
VERTEX
  8
10
 10
754.53470215
 20
749.72434366
  0
VERTEX
  8
10
 10
755.10190281
 20
749.77996964
  0
VERTEX
  8
10
 10
755.66334141
 20
749.83355906
  0
VERTEX
  8
10
 10
756.21892124
 20
749.88511146
  0
VERTEX
  8
10
 10
756.76854544
 20
749.93462632
  0
VERTEX
  8
10
 10
756.95041333
 20
749.93073316
  0
VERTEX
  8
10
 10
756.95041333
 20
734.73664243
  0
VERTEX
  8
10
 10
756.93341710
 20
734.20313816
  0
VERTEX
  8
10
 10
756.91395456
 20
733.66028432
  0
VERTEX
  8
10
 10
756.89055629
 20
733.10884768
  0
VERTEX
  8
10
 10
756.86175270
 20
732.54959489
  0
VERTEX
  8
10
 10
756.82607428
 20
731.98329269
  0
VERTEX
  8
10
 10
756.78205156
 20
731.41070775
  0
VERTEX
  8
10
 10
756.72821495
 20
730.83260678
  0
VERTEX
  8
10
 10
756.66309499
 20
730.24975653
  0
VERTEX
  8
10
 10
756.58522212
 20
729.66292367
  0
VERTEX
  8
10
 10
756.49312683
 20
729.07287486
  0
VERTEX
  8
10
 10
756.38533962
 20
728.48037690
  0
VERTEX
  8
10
 10
756.26039095
 20
727.88619644
  0
VERTEX
  8
10
 10
756.11681132
 20
727.29110018
  0
VERTEX
  8
10
 10
755.95313125
 20
726.69585485
  0
VERTEX
  8
10
 10
755.76788114
 20
726.10122715
  0
VERTEX
  8
10
 10
755.55959152
 20
725.50798377
  0
VERTEX
  8
10
 10
755.32679284
 20
724.91689144
  0
VERTEX
  8
10
 10
755.06801564
 20
724.32871684
  0
VERTEX
  8
10
 10
754.78179036
 20
723.74422665
  0
VERTEX
  8
10
 10
754.46664746
 20
723.16418764
  0
VERTEX
  8
10
 10
754.12111747
 20
722.58936648
  0
VERTEX
  8
10
 10
753.74373087
 20
722.02052989
  0
VERTEX
  8
10
 10
753.33301812
 20
721.45844456
  0
VERTEX
  8
10
 10
752.88750968
 20
720.90387719
  0
VERTEX
  8
10
 10
752.40573607
 20
720.35759450
  0
VERTEX
  8
10
 10
751.88622777
 20
719.82036317
  0
VERTEX
  8
10
 10
751.32751526
 20
719.29294996
  0
VERTEX
  8
10
 10
750.72812900
 20
718.77612152
  0
VERTEX
  8
10
 10
750.08659947
 20
718.27064457
  0
VERTEX
  8
10
 10
749.40145721
 20
717.77728585
  0
VERTEX
  8
10
 10
748.67123262
 20
717.29681200
  0
VERTEX
  8
10
 10
748.03522998
 20
716.90951116
  0
VERTEX
  8
10
 10
747.65776793
 20
716.68871431
  0
VERTEX
  8
10
 10
747.26990214
 20
716.47221949
  0
VERTEX
  8
10
 10
746.87217562
 20
716.26021844
  0
VERTEX
  8
10
 10
746.46513154
 20
716.05290281
  0
VERTEX
  8
10
 10
746.04931295
 20
715.85046427
  0
VERTEX
  8
10
 10
745.62526293
 20
715.65309452
  0
VERTEX
  8
10
 10
745.19352457
 20
715.46098521
  0
VERTEX
  8
10
 10
744.75464092
 20
715.27432801
  0
VERTEX
  8
10
 10
744.30915510
 20
715.09331459
  0
VERTEX
  8
10
 10
743.85761017
 20
714.91813670
  0
VERTEX
  8
10
 10
743.40054924
 20
714.74898592
  0
VERTEX
  8
10
 10
742.93851537
 20
714.58605401
  0
VERTEX
  8
10
 10
742.47205164
 20
714.42953258
  0
VERTEX
  8
10
 10
742.00170115
 20
714.27961335
  0
VERTEX
  8
10
 10
741.52800697
 20
714.13648797
  0
VERTEX
  8
10
 10
741.49676663
 20
714.12756226
  0
SEQEND
  8
10
  0
POLYLINE
  8
10
 62
     4
 66
     1
  0
VERTEX
  8
10
 10
540.04007704
 20
714.12756226
  0
VERTEX
  8
10
 10
538.68687079
 20
713.79002072
  0
VERTEX
  8
10
 10
537.35208318
 20
713.51281304
  0
VERTEX
  8
10
 10
535.98045829
 20
713.24293182
  0
VERTEX
  8
10
 10
534.62725204
 20
713.04869346
  0
VERTEX
  8
10
 10
534.32386187
 20
713.01867458
  0
VERTEX
  8
10
 10
533.85612028
 20
712.98131191
  0
VERTEX
  8
10
 10
533.39263819
 20
712.95342655
  0
VERTEX
  8
10
 10
532.93395865
 20
712.93521019
  0
VERTEX
  8
10
 10
532.48062474
 20
712.92685452
  0
VERTEX
  8
10
 10
531.72510245
 20
712.93481108
  0
VERTEX
  8
10
 10
530.82815267
 20
712.97929061
  0
VERTEX
  8
10
 10
529.94599120
 20
713.06136001
  0
VERTEX
  8
10
 10
529.07960938
 20
713.18050809
  0
VERTEX
  8
10
 10
528.22999844
 20
713.33622377
  0
VERTEX
  8
10
 10
527.39814965
 20
713.52799586
  0
VERTEX
  8
10
 10
526.58505431
 20
713.75531329
  0
VERTEX
  8
10
 10
525.79170366
 20
714.01766484
  0
VERTEX
  8
10
 10
525.01908892
 20
714.31453945
  0
VERTEX
  8
10
 10
524.26820145
 20
714.64542595
  0
VERTEX
  8
10
 10
523.54003247
 20
715.00981318
  0
VERTEX
  8
10
 10
522.83557325
 20
715.40719003
  0
VERTEX
  8
10
 10
522.15581503
 20
715.83704534
  0
VERTEX
  8
10
 10
521.50174914
 20
716.29886804
  0
VERTEX
  8
10
 10
520.87436678
 20
716.79214690
  0
VERTEX
  8
10
 10
520.27465926
 20
717.31637084
  0
VERTEX
  8
10
 10
519.70361784
 20
717.87102872
  0
VERTEX
  8
10
 10
519.16223380
 20
718.45560942
  0
VERTEX
  8
10
 10
518.65149836
 20
719.06960175
  0
VERTEX
  8
10
 10
518.17240279
 20
719.71249459
  0
VERTEX
  8
10
 10
517.72593844
 20
720.38377684
  0
VERTEX
  8
10
 10
517.31309647
 20
721.08293734
  0
VERTEX
  8
10
 10
516.93486822
 20
721.80946493
  0
VERTEX
  8
10
 10
516.59224495
 20
722.56284851
  0
VERTEX
  8
10
 10
516.28621789
 20
723.34257692
  0
VERTEX
  8
10
 10
516.01777833
 20
724.14813905
  0
VERTEX
  8
10
 10
515.78791752
 20
724.97902374
  0
VERTEX
  8
10
 10
515.59762677
 20
725.83471986
  0
VERTEX
  8
10
 10
515.44789728
 20
726.71471623
  0
VERTEX
  8
10
 10
515.33972038
 20
727.61850179
  0
VERTEX
  8
10
 10
515.27408731
 20
728.54556539
  0
VERTEX
  8
10
 10
515.25198935
 20
729.49539583
  0
VERTEX
  8
10
 10
515.29525680
 20
730.80654941
  0
VERTEX
  8
10
 10
515.42207666
 20
732.05079372
  0
VERTEX
  8
10
 10
515.62797503
 20
733.22998025
  0
VERTEX
  8
10
 10
515.90847805
 20
734.34596042
  0
VERTEX
  8
10
 10
516.25911191
 20
735.40058568
  0
VERTEX
  8
10
 10
516.67540268
 20
736.39570754
  0
VERTEX
  8
10
 10
517.15287656
 20
737.33317744
  0
VERTEX
  8
10
 10
517.68705971
 20
738.21484684
  0
VERTEX
  8
10
 10
518.27347821
 20
739.04256720
  0
VERTEX
  8
10
 10
518.90765824
 20
739.81818995
  0
VERTEX
  8
10
 10
519.58512598
 20
740.54356663
  0
VERTEX
  8
10
 10
520.30140749
 20
741.22054862
  0
VERTEX
  8
10
 10
521.05202901
 20
741.85098742
  0
VERTEX
  8
10
 10
521.83251659
 20
742.43673451
  0
VERTEX
  8
10
 10
522.63839645
 20
742.97964129
  0
VERTEX
  8
10
 10
523.46519472
 20
743.48155927
  0
VERTEX
  8
10
 10
524.30843751
 20
743.94433993
  0
VERTEX
  8
10
 10
525.16365097
 20
744.36983467
  0
VERTEX
  8
10
 10
526.02636128
 20
744.75989500
  0
VERTEX
  8
10
 10
526.89209457
 20
745.11637236
  0
VERTEX
  8
10
 10
527.75637694
 20
745.44111819
  0
VERTEX
  8
10
 10
528.61473460
 20
745.73598400
  0
VERTEX
  8
10
 10
529.46269366
 20
746.00282122
  0
VERTEX
  8
10
 10
530.29578026
 20
746.24348134
  0
VERTEX
  8
10
 10
531.10952059
 20
746.45981575
  0
VERTEX
  8
10
 10
531.89944073
 20
746.65367601
  0
VERTEX
  8
10
 10
532.66106685
 20
746.82691351
  0
VERTEX
  8
10
 10
533.38992510
 20
746.98137973
  0
VERTEX
  8
10
 10
534.08154164
 20
747.11892614
  0
VERTEX
  8
10
 10
534.62725204
 20
747.22176881
  0
VERTEX
  8
10
 10
535.98045829
 20
747.47359508
  0
VERTEX
  8
10
 10
537.33366454
 20
747.68686181
  0
VERTEX
  8
10
 10
540.04007704
 20
748.09144325
  0
VERTEX
  8
10
 10
540.67301047
 20
748.18487002
  0
VERTEX
  8
10
 10
541.33512844
 20
748.28112856
  0
VERTEX
  8
10
 10
541.99341995
 20
748.37535992
  0
VERTEX
  8
10
 10
542.64778820
 20
748.46756364
  0
VERTEX
  8
10
 10
543.29813641
 20
748.55773925
  0
VERTEX
  8
10
 10
543.94436782
 20
748.64588631
  0
VERTEX
  8
10
 10
544.58638562
 20
748.73200432
  0
VERTEX
  8
10
 10
545.22409305
 20
748.81609281
  0
VERTEX
  8
10
 10
545.85739336
 20
748.89815131
  0
VERTEX
  8
10
 10
546.48618973
 20
748.97817935
  0
VERTEX
  8
10
 10
547.11038542
 20
749.05617650
  0
VERTEX
  8
10
 10
547.72988363
 20
749.13214221
  0
VERTEX
  8
10
 10
548.34458757
 20
749.20607610
  0
VERTEX
  8
10
 10
548.95440047
 20
749.27797765
  0
VERTEX
  8
10
 10
549.55922557
 20
749.34784639
  0
VERTEX
  8
10
 10
550.15896608
 20
749.41568186
  0
VERTEX
  8
10
 10
550.75352524
 20
749.48148359
  0
VERTEX
  8
10
 10
551.34280622
 20
749.54525111
  0
VERTEX
  8
10
 10
551.92671230
 20
749.60698391
  0
VERTEX
  8
10
 10
552.50514666
 20
749.66668160
  0
VERTEX
  8
10
 10
553.07801256
 20
749.72434366
  0
VERTEX
  8
10
 10
553.64521322
 20
749.77996964
  0
VERTEX
  8
10
 10
554.20665182
 20
749.83355906
  0
VERTEX
  8
10
 10
554.76223165
 20
749.88511146
  0
VERTEX
  8
10
 10
555.31185585
 20
749.93462632
  0
VERTEX
  8
10
 10
555.49372374
 20
749.93073316
  0
VERTEX
  8
10
 10
555.49372374
 20
734.73664243
  0
VERTEX
  8
10
 10
555.47672751
 20
734.20313816
  0
VERTEX
  8
10
 10
555.45726497
 20
733.66028432
  0
VERTEX
  8
10
 10
555.43386670
 20
733.10884768
  0
VERTEX
  8
10
 10
555.40506311
 20
732.54959489
  0
VERTEX
  8
10
 10
555.36938469
 20
731.98329269
  0
VERTEX
  8
10
 10
555.32536197
 20
731.41070775
  0
VERTEX
  8
10
 10
555.27152536
 20
730.83260678
  0
VERTEX
  8
10
 10
555.20640540
 20
730.24975653
  0
VERTEX
  8
10
 10
555.12853253
 20
729.66292367
  0
VERTEX
  8
10
 10
555.03643724
 20
729.07287486
  0
VERTEX
  8
10
 10
554.92865003
 20
728.48037690
  0
VERTEX
  8
10
 10
554.80370136
 20
727.88619644
  0
VERTEX
  8
10
 10
554.66012174
 20
727.29110018
  0
VERTEX
  8
10
 10
554.49644166
 20
726.69585485
  0
VERTEX
  8
10
 10
554.31119155
 20
726.10122715
  0
VERTEX
  8
10
 10
554.10290193
 20
725.50798377
  0
VERTEX
  8
10
 10
553.87010325
 20
724.91689144
  0
VERTEX
  8
10
 10
553.61132605
 20
724.32871684
  0
VERTEX
  8
10
 10
553.32510077
 20
723.74422665
  0
VERTEX
  8
10
 10
553.00995787
 20
723.16418764
  0
VERTEX
  8
10
 10
552.66442788
 20
722.58936648
  0
VERTEX
  8
10
 10
552.28704128
 20
722.02052989
  0
VERTEX
  8
10
 10
551.87632854
 20
721.45844456
  0
VERTEX
  8
10
 10
551.43082009
 20
720.90387719
  0
VERTEX
  8
10
 10
550.94904648
 20
720.35759450
  0
VERTEX
  8
10
 10
550.42953819
 20
719.82036317
  0
VERTEX
  8
10
 10
549.87082567
 20
719.29294996
  0
VERTEX
  8
10
 10
549.27143941
 20
718.77612152
  0
VERTEX
  8
10
 10
548.62990988
 20
718.27064457
  0
VERTEX
  8
10
 10
547.94476763
 20
717.77728585
  0
VERTEX
  8
10
 10
547.21454304
 20
717.29681200
  0
VERTEX
  8
10
 10
546.57854039
 20
716.90951116
  0
VERTEX
  8
10
 10
546.20107834
 20
716.68871431
  0
VERTEX
  8
10
 10
545.81321255
 20
716.47221949
  0
VERTEX
  8
10
 10
545.41548604
 20
716.26021844
  0
VERTEX
  8
10
 10
545.00844196
 20
716.05290281
  0
VERTEX
  8
10
 10
544.59262336
 20
715.85046427
  0
VERTEX
  8
10
 10
544.16857334
 20
715.65309452
  0
VERTEX
  8
10
 10
543.73683498
 20
715.46098521
  0
VERTEX
  8
10
 10
543.29795133
 20
715.27432801
  0
VERTEX
  8
10
 10
542.85246551
 20
715.09331459
  0
VERTEX
  8
10
 10
542.40092058
 20
714.91813670
  0
VERTEX
  8
10
 10
541.94385965
 20
714.74898592
  0
VERTEX
  8
10
 10
541.48182578
 20
714.58605401
  0
VERTEX
  8
10
 10
541.01536205
 20
714.42953258
  0
VERTEX
  8
10
 10
540.54501156
 20
714.27961335
  0
VERTEX
  8
10
 10
540.07131738
 20
714.13648797
  0
VERTEX
  8
10
 10
540.04007704
 20
714.12756226
  0
SEQEND
  8
10
  0
POLYLINE
  8
10
 62
     4
 66
     1
  0
VERTEX
  8
10
 10
517.62148936
 20
820.39360480
  0
VERTEX
  8
10
 10
530.97759535
 20
820.39360480
  0
VERTEX
  8
10
 10
530.97759535
 20
834.08971920
  0
VERTEX
  8
10
 10
517.62148936
 20
834.08971920
  0
VERTEX
  8
10
 10
517.62148936
 20
820.39360480
  0
SEQEND
  8
10
  0
POLYLINE
  8
10
 62
     4
 66
     1
  0
VERTEX
  8
10
 10
544.33556336
 20
820.39360480
  0
VERTEX
  8
10
 10
557.69166574
 20
820.39360480
  0
VERTEX
  8
10
 10
557.69166574
 20
834.08971920
  0
VERTEX
  8
10
 10
544.33556336
 20
834.08971920
  0
VERTEX
  8
10
 10
544.33556336
 20
820.39360480
  0
SEQEND
  8
10
  0
LINE
  8
10
 62
     4
 10
473.53833160
 20
721.13114771
 11
483.68205824
 21
731.27487436
  0
LINE
  8
10
 62
     4
 10
516.22180491
 20
763.81462103
 11
516.79095327
 21
764.38376938
  0
LINE
  8
10
 62
     4
 10
536.65703209
 20
784.24984820
 11
544.62049413
 21
792.21331025
  0
LINE
  8
10
 62
     4
 10
473.53833160
 20
723.99493017
 11
483.68205824
 21
734.13865682
  0
LINE
  8
10
 62
     4
 10
513.35802245
 20
763.81462103
 11
516.97187155
 21
767.42847013
  0
LINE
  8
10
 62
     4
 10
533.56799181
 20
784.02459038
 11
542.00600275
 21
792.46260133
  0
LINE
  8
10
 62
     4
 10
473.53833160
 20
726.85871264
 11
483.68205824
 21
737.00243928
  0
LINE
  8
10
 62
     4
 10
510.49423999
 20
763.81462103
 11
517.52151800
 21
770.84189904
  0
LINE
  8
10
 62
     4
 10
530.08078473
 20
783.40116577
 11
539.23601237
 21
792.55639341
  0
LINE
  8
10
 62
     4
 10
473.53833160
 20
729.72249510
 11
483.68205824
 21
739.86622175
  0
LINE
  8
10
 62
     4
 10
507.63045752
 20
763.81462103
 11
519.17552840
 21
775.35969190
  0
LINE
  8
10
 62
     4
 10
525.45612908
 20
781.64029258
 11
536.27692392
 21
792.46108742
  0
LINE
  8
10
 62
     4
 10
473.53833160
 20
732.58627757
 11
483.68205824
 21
742.73000421
  0
LINE
  8
10
 62
     4
 10
506.65290807
 20
765.70085404
 11
533.09122927
 21
792.13917524
  0
LINE
  8
10
 62
     4
 10
473.53833160
 20
735.45006003
 11
483.68205824
 21
745.59378667
  0
LINE
  8
10
 62
     4
 10
506.87812136
 20
768.78984980
 11
529.61801696
 21
791.52974539
  0
LINE
  8
10
 62
     4
 10
473.53833160
 20
738.31384249
 11
483.68205824
 21
748.45756914
  0
LINE
  8
10
 62
     4
 10
507.53160422
 20
772.30711512
 11
525.68902061
 21
790.46453150
  0
LINE
  8
10
 62
     4
 10
555.61809391
 20
820.39360480
 11
557.69166574
 21
822.46717664
  0
LINE
  8
10
 62
     4
 10
473.53833160
 20
741.17762496
 11
483.68205824
 21
751.32135160
  0
LINE
  8
10
 62
     4
 10
509.06133403
 20
776.70062739
 11
520.84508589
 21
788.48437925
  0
LINE
  8
10
 62
     4
 10
552.75431144
 20
820.39360480
 11
557.69166574
 21
825.33095910
  0
LINE
  8
10
 62
     4
 10
473.53833160
 20
744.04140742
 11
483.68205824
 21
754.18513407
  0
LINE
  8
10
 62
     4
 10
549.89052898
 20
820.39360480
 11
557.69166574
 21
828.19474157
  0
LINE
  8
10
 62
     4
 10
473.53833160
 20
746.90518988
 11
483.68205824
 21
757.04891653
  0
LINE
  8
10
 62
     4
 10
547.02674652
 20
820.39360480
 11
557.69166574
 21
831.05852403
  0
LINE
  8
10
 62
     4
 10
430.10182713
 20
706.33246788
 11
430.92958262
 21
707.16022337
  0
LINE
  8
10
 62
     4
 10
473.53833160
 20
749.76897235
 11
483.68205824
 21
759.91269899
  0
LINE
  8
10
 62
     4
 10
544.33556336
 20
820.56620411
 11
557.69166574
 21
833.92230650
  0
LINE
  8
10
 62
     4
 10
427.23804467
 20
706.33246788
 11
430.92958262
 21
710.02400583
  0
LINE
  8
10
 62
     4
 10
473.53833160
 20
752.63275481
 11
483.68205824
 21
762.77648146
  0
LINE
  8
10
 62
     4
 10
544.33556336
 20
823.42998657
 11
554.99529599
 21
834.08971920
  0
LINE
  8
10
 62
     4
 10
424.37426220
 20
706.33246788
 11
430.92958262
 21
712.88778830
  0
LINE
  8
10
 62
     4
 10
473.55362340
 20
755.51182908
 11
483.63162071
 21
765.58982639
  0
LINE
  8
10
 62
     4
 10
544.33556336
 20
826.29376904
 11
552.13151353
 21
834.08971920
  0
LINE
  8
10
 62
     4
 10
421.51047974
 20
706.33246788
 11
430.92958262
 21
715.75157076
  0
LINE
  8
10
 62
     4
 10
473.60590156
 20
758.42788970
 11
483.52483503
 21
768.34682317
  0
LINE
  8
10
 62
     4
 10
544.33556336
 20
829.15755150
 11
549.26773106
 21
834.08971920
  0
LINE
  8
10
 62
     4
 10
420.95617163
 20
708.64194223
 11
430.92958262
 21
718.61535322
  0
LINE
  8
10
 62
     4
 10
473.60933568
 20
761.29510629
 11
483.32412637
 21
771.00989698
  0
LINE
  8
10
 62
     4
 10
544.33556336
 20
832.02133397
 11
546.40394860
 21
834.08971920
  0
LINE
  8
10
 62
     4
 10
420.95617163
 20
711.50572470
 11
430.92958262
 21
721.47913569
  0
LINE
  8
10
 62
     4
 10
473.53413840
 20
764.08369147
 11
482.98868882
 21
773.53824189
  0
LINE
  8
10
 62
     4
 10
529.84405173
 20
820.39360480
 11
530.97759535
 21
821.52714842
  0
LINE
  8
10
 62
     4
 10
420.95617163
 20
714.36950716
 11
430.92958262
 21
724.34291815
  0
LINE
  8
10
 62
     4
 10
473.35634513
 20
766.76968066
 11
482.49808059
 21
775.91141612
  0
LINE
  8
10
 62
     4
 10
526.98026927
 20
820.39360480
 11
530.97759535
 21
824.39093089
  0
LINE
  8
10
 62
     4
 10
420.95617163
 20
717.23328963
 11
430.92958262
 21
727.20670061
  0
LINE
  8
10
 62
     4
 10
473.04324788
 20
769.32036588
 11
481.84084472
 21
778.11796272
  0
LINE
  8
10
 62
     4
 10
524.11648681
 20
820.39360480
 11
530.97759535
 21
827.25471335
  0
LINE
  8
10
 62
     4
 10
420.95617163
 20
720.09707209
 11
430.92958262
 21
730.07048308
  0
LINE
  8
10
 62
     4
 10
472.57212298
 20
771.71302344
 11
481.01654556
 21
780.15744602
  0
LINE
  8
10
 62
     4
 10
521.25270434
 20
820.39360480
 11
530.97759535
 21
830.11849582
  0
LINE
  8
10
 62
     4
 10
420.95617163
 20
722.96085455
 11
430.92958262
 21
732.93426554
  0
LINE
  8
10
 62
     4
 10
471.92398209
 20
773.92866502
 11
480.02771968
 21
782.03240260
  0
LINE
  8
10
 62
     4
 10
518.38892188
 20
820.39360480
 11
530.97759535
 21
832.98227828
  0
LINE
  8
10
 62
     4
 10
420.95617163
 20
725.82463702
 11
430.92958262
 21
735.79804801
  0
LINE
  8
10
 62
     4
 10
471.07526108
 20
775.94372647
 11
478.88143813
 21
783.74990352
  0
LINE
  8
10
 62
     4
 10
517.62148936
 20
822.48995475
 11
529.22125381
 21
834.08971920
  0
LINE
  8
10
 62
     4
 10
420.95617163
 20
728.68841948
 11
430.92958262
 21
738.66183047
  0
LINE
  8
10
 62
     4
 10
470.02647933
 20
777.75872719
 11
477.58395337
 21
785.31620122
  0
LINE
  8
10
 62
     4
 10
517.62148936
 20
825.35373721
 11
526.35747135
 21
834.08971920
  0
LINE
  8
10
 62
     4
 10
420.95617163
 20
731.55220195
 11
430.92958262
 21
741.52561293
  0
LINE
  8
10
 62
     4
 10
468.77164592
 20
779.36767623
 11
476.13868087
 21
786.73471118
  0
LINE
  8
10
 62
     4
 10
517.62148936
 20
828.21751968
 11
523.49368889
 21
834.08971920
  0
LINE
  8
10
 62
     4
 10
420.95617163
 20
734.41598441
 11
430.92958262
 21
744.38939540
  0
LINE
  8
10
 62
     4
 10
467.30526061
 20
780.76507339
 11
474.54864055
 21
788.00845333
  0
LINE
  8
10
 62
     4
 10
517.62148936
 20
831.08130214
 11
520.62990642
 21
834.08971920
  0
LINE
  8
10
 62
     4
 10
420.95617163
 20
737.27976687
 11
430.92958262
 21
747.25317786
  0
LINE
  8
10
 62
     4
 10
465.64150924
 20
781.96510448
 11
472.81485249
 21
789.13844773
  0
LINE
  8
10
 62
     4
 10
517.62148936
 20
833.94508461
 11
517.76612396
 21
834.08971920
  0
LINE
  8
10
 62
     4
 10
420.95617163
 20
740.14354934
 11
430.92958262
 21
750.11696032
  0
LINE
  8
10
 62
     4
 10
463.79237650
 20
782.97975421
 11
470.93675668
 21
790.12413439
  0
LINE
  8
10
 62
     4
 10
420.95617163
 20
743.00733180
 11
430.92958262
 21
752.98074279
  0
LINE
  8
10
 62
     4
 10
461.78584555
 20
783.83700572
 11
468.91209153
 21
790.96325170
  0
LINE
  8
10
 62
     4
 10
420.95617163
 20
745.87111426
 11
430.92958262
 21
755.84452525
  0
LINE
  8
10
 62
     4
 10
459.54389790
 20
784.45884053
 11
466.73614285
 21
791.65108549
  0
LINE
  8
10
 62
     4
 10
420.95617163
 20
748.73489673
 11
430.92958262
 21
758.70830772
  0
LINE
  8
10
 62
     4
 10
457.05624965
 20
784.83497475
 11
464.40200721
 21
792.18073231
  0
LINE
  8
10
 62
     4
 10
420.95617163
 20
751.59867919
 11
430.92958262
 21
761.57209018
  0
LINE
  8
10
 62
     4
 10
454.30381243
 20
784.94631999
 11
461.89892639
 21
792.54143395
  0
LINE
  8
10
 62
     4
 10
420.95617163
 20
754.46246166
 11
430.97968198
 21
764.48597201
  0
LINE
  8
10
 62
     4
 10
451.24005756
 20
784.74634759
 11
459.20874212
 21
792.71503215
  0
LINE
  8
10
 62
     4
 10
420.95617163
 20
757.32624412
 11
431.23332150
 21
767.60339399
  0
LINE
  8
10
 62
     4
 10
447.74047504
 20
784.11054753
 11
456.30562853
 21
792.67570102
  0
LINE
  8
10
 62
     4
 10
420.95617163
 20
760.19002658
 11
432.05352025
 21
771.28737520
  0
LINE
  8
10
 62
     4
 10
443.47928568
 20
782.71314064
 11
453.18296869
 21
792.41682364
  0
LINE
  8
10
 62
     4
 10
420.95617163
 20
763.05380905
 11
449.73563467
 21
791.83327209
  0
LINE
  8
10
 62
     4
 10
420.95617163
 20
765.91759151
 11
445.79716285
 21
790.75858274
  0
LINE
  8
10
 62
     4
 10
420.95617163
 20
768.78137397
 11
440.86152193
 21
788.68672428
  0
LINE
  8
10
 62
     4
 10
420.95617163
 20
771.64515644
 11
430.92958262
 21
781.61856743
  0
LINE
  8
10
 62
     4
 10
420.95617163
 20
774.50893890
 11
430.92958262
 21
784.48234989
  0
LINE
  8
10
 62
     4
 10
420.95617163
 20
777.37272137
 11
430.92958262
 21
787.34613235
  0
LINE
  8
10
 62
     4
 10
420.95617163
 20
780.23650383
 11
430.92958262
 21
790.20991482
  0
LINE
  8
10
 62
     4
 10
420.95617163
 20
783.10028629
 11
430.92958262
 21
793.07369728
  0
LINE
  8
10
 62
     4
 10
420.95617163
 20
785.96406876
 11
430.92958262
 21
795.93747975
  0
LINE
  8
10
 62
     4
 10
420.95617163
 20
788.82785122
 11
430.92958262
 21
798.80126221
  0
LINE
  8
10
 62
     4
 10
420.95617163
 20
791.69163369
 11
430.92958262
 21
801.66504467
  0
LINE
  8
10
 62
     4
 10
420.95617163
 20
794.55541615
 11
430.92958262
 21
804.52882714
  0
LINE
  8
10
 62
     4
 10
420.95617163
 20
797.41919861
 11
430.92958262
 21
807.39260960
  0
LINE
  8
10
 62
     4
 10
420.95617163
 20
800.28298108
 11
430.92958262
 21
810.25639206
  0
LINE
  8
10
 62
     4
 10
420.95617163
 20
803.14676354
 11
430.92958262
 21
813.12017453
  0
LINE
  8
10
 62
     4
 10
420.95617163
 20
806.01054600
 11
430.92958262
 21
815.98395699
  0
LINE
  8
10
 62
     4
 10
420.95617163
 20
808.87432847
 11
430.92958262
 21
818.84773946
  0
LINE
  8
10
 62
     4
 10
420.95617163
 20
811.73811093
 11
430.92958262
 21
821.71152192
  0
LINE
  8
10
 62
     4
 10
420.95617163
 20
814.60189340
 11
430.92958262
 21
824.57530438
  0
LINE
  8
10
 62
     4
 10
420.95617163
 20
817.46567586
 11
430.92958262
 21
827.43908685
  0
LINE
  8
10
 62
     4
 10
420.95617163
 20
820.32945832
 11
430.92958262
 21
830.30286931
  0
LINE
  8
10
 62
     4
 10
420.95617163
 20
823.19324079
 11
430.92958262
 21
833.16665178
  0
LINE
  8
10
 62
     4
 10
420.95617163
 20
826.05702325
 11
428.98886672
 21
834.08971834
  0
LINE
  8
10
 62
     4
 10
420.95617163
 20
828.92080571
 11
426.12508425
 21
834.08971834
  0
LINE
  8
10
 62
     4
 10
420.95617163
 20
831.78458818
 11
423.26130179
 21
834.08971834
  0
LINE
  8
10
 62
     4
 10
473.53833160
 20
718.26736525
 11
483.68205824
 21
728.41109189
  0
LINE
  8
10
 62
     4
 10
539.50145688
 20
784.23049053
 11
547.09604738
 21
791.82508103
  0
LINE
  8
10
 62
     4
 10
473.53833160
 20
715.40358278
 11
483.68205824
 21
725.54730943
  0
LINE
  8
10
 62
     4
 10
542.14137374
 20
784.00662493
 11
549.43772022
 21
791.30297140
  0
LINE
  8
10
 62
     4
 10
473.53833160
 20
712.53980032
 11
483.68205824
 21
722.68352696
  0
LINE
  8
10
 62
     4
 10
544.56266430
 20
783.56413302
 11
551.64502030
 21
790.64648902
  0
LINE
  8
10
 62
     4
 10
473.53833160
 20
709.67601785
 11
483.68205824
 21
719.81974450
  0
LINE
  8
10
 62
     4
 10
546.74851379
 20
782.88620005
 11
553.71354079
 21
789.85122704
  0
LINE
  8
10
 62
     4
 10
473.53833160
 20
706.81223539
 11
483.68205824
 21
716.95596204
  0
LINE
  8
10
 62
     4
 10
507.41316175
 20
740.68706554
 11
515.98270121
 21
749.25660500
  0
LINE
  8
10
 62
     4
 10
548.69866899
 20
781.97257279
 11
555.63501816
 21
788.90892195
  0
LINE
  8
10
 62
     4
 10
475.92234655
 20
706.33246788
 11
483.68205824
 21
714.09217957
  0
LINE
  8
10
 62
     4
 10
505.37439854
 20
735.78451988
 11
521.21611831
 21
751.62623964
  0
LINE
  8
10
 62
     4
 10
550.40637678
 20
780.81649811
 11
557.39691433
 21
787.80703566
  0
LINE
  8
10
 62
     4
 10
478.78612902
 20
706.33246788
 11
483.68205824
 21
711.22839711
  0
LINE
  8
10
 62
     4
 10
504.64653856
 20
732.19287742
 11
525.28191128
 21
752.82825014
  0
LINE
  8
10
 62
     4
 10
551.85692165
 20
779.40326052
 11
558.98149583
 21
786.52783470
  0
LINE
  8
10
 62
     4
 10
481.64991148
 20
706.33246788
 11
483.68205824
 21
708.36461464
  0
LINE
  8
10
 62
     4
 10
504.43904530
 20
729.12160170
 11
528.95138580
 21
753.63394220
  0
LINE
  8
10
 62
     4
 10
553.05223321
 20
777.73478962
 11
560.38203697
 21
785.06459337
  0
LINE
  8
10
 62
     4
 10
504.54763511
 20
726.36640905
 11
532.42148642
 21
754.24026036
  0
LINE
  8
10
 62
     4
 10
553.99680179
 20
775.81557573
 11
561.61341909
 21
783.43219303
  0
LINE
  8
10
 62
     4
 10
504.89449399
 20
723.84948547
 11
516.16623150
 21
735.12122298
  0
LINE
  8
10
 62
     4
 10
525.62214274
 20
744.57713421
 11
535.77984056
 21
754.73483204
  0
LINE
  8
10
 62
     4
 10
554.67988041
 20
773.63487189
 11
562.66079754
 21
781.61578901
  0
LINE
  8
10
 62
     4
 10
505.42827567
 20
721.51948468
 11
515.36107325
 21
731.45228227
  0
LINE
  8
10
 62
     4
 10
530.09397541
 20
746.18518443
 11
539.07906668
 21
755.17027570
  0
LINE
  8
10
 62
     4
 10
555.12895320
 20
771.22016221
 11
563.52024936
 21
779.61145837
  0
LINE
  8
10
 62
     4
 10
506.12137852
 20
719.34880506
 11
515.27699982
 21
728.50442637
  0
LINE
  8
10
 62
     4
 10
533.84432217
 20
747.07174872
 11
542.32853813
 21
755.55596467
  0
LINE
  8
10
 62
     4
 10
555.37280236
 20
768.60022891
 11
564.19280837
 21
777.42023492
  0
LINE
  8
10
 62
     4
 10
506.96032519
 20
717.32396928
 11
515.57922535
 21
725.94286943
  0
LINE
  8
10
 62
     4
 10
537.32126327
 20
747.68490736
 11
545.56008145
 21
755.92372553
  0
LINE
  8
10
 62
     4
 10
555.47526535
 20
765.83890944
 11
564.68047592
 21
775.04412000
  0
LINE
  8
10
 62
     4
 10
507.94251672
 20
715.44237834
 11
516.17536738
 21
723.67522900
  0
LINE
  8
10
 62
     4
 10
540.68704937
 20
748.18691099
 11
548.79162477
 21
756.29148639
  0
LINE
  8
10
 62
     4
 10
555.49372374
 20
762.99358536
 11
565.00197106
 21
772.50183268
  0
LINE
  8
10
 62
     4
 10
581.34250160
 20
788.84236322
 11
583.19728279
 21
790.69714441
  0
LINE
  8
10
 62
     4
 10
509.06582844
 20
713.70190760
 11
517.01652796
 21
721.65260712
  0
LINE
  8
10
 62
     4
 10
544.01994478
 20
748.65602394
 11
552.02316809
 21
756.65924725
  0
LINE
  8
10
 62
     4
 10
555.49372374
 20
760.12980290
 11
565.18341168
 21
769.81949084
  0
LINE
  8
10
 62
     4
 10
582.00095969
 20
786.63703884
 11
586.06106526
 21
790.69714441
  0
LINE
  8
10
 62
     4
 10
510.34464437
 20
712.11694106
 11
518.07965261
 21
719.85194930
  0
LINE
  8
10
 62
     4
 10
547.30812790
 20
749.08042459
 11
565.27671733
 21
767.04901402
  0
LINE
  8
10
 62
     4
 10
582.65941777
 20
784.43171446
 11
588.92484772
 21
790.69714441
  0
LINE
  8
10
 62
     4
 10
511.74607607
 20
710.65459030
 11
519.34728206
 21
718.25579629
  0
LINE
  8
10
 62
     4
 10
550.55049991
 20
749.45901414
 11
565.29992704
 21
764.20844127
  0
LINE
  8
10
 62
     4
 10
583.31787586
 20
782.22639008
 11
591.78863018
 21
790.69714441
  0
LINE
  8
10
 62
     4
 10
513.28359755
 20
709.32832932
 11
520.80662790
 21
716.85135967
  0
LINE
  8
10
 62
     4
 10
553.74473749
 20
749.78946925
 11
565.29992704
 21
761.34465881
  0
LINE
  8
10
 62
     4
 10
583.97633394
 20
780.02106571
 11
592.67095793
 21
788.71568970
  0
LINE
  8
10
 62
     4
 10
514.98006703
 20
708.16101633
 11
522.46229122
 21
715.64324052
  0
LINE
  8
10
 62
     4
 10
555.49372374
 20
748.67467304
 11
565.29992704
 21
758.48087634
  0
LINE
  8
10
 62
     4
 10
584.63479203
 20
777.81574133
 11
593.29704649
 21
786.47799579
  0
LINE
  8
10
 62
     4
 10
516.83790261
 20
707.15506944
 11
524.30988904
 21
714.62705588
  0
LINE
  8
10
 62
     4
 10
555.49372374
 20
745.81089058
 11
565.29992704
 21
755.61709388
  0
LINE
  8
10
 62
     4
 10
585.29325011
 20
775.61041695
 11
593.92313504
 21
784.24030188
  0
LINE
  8
10
 62
     4
 10
518.86582833
 20
706.31921270
 11
526.37228814
 21
713.82567251
  0
LINE
  8
10
 62
     4
 10
555.49372374
 20
742.94710811
 11
565.29992704
 21
752.75331142
  0
LINE
  8
10
 62
     4
 10
585.95170820
 20
773.40509257
 11
594.54922360
 21
782.00260797
  0
LINE
  8
10
 62
     4
 10
521.07019344
 20
705.65979535
 11
528.66660173
 21
713.25620364
  0
LINE
  8
10
 62
     4
 10
555.49372374
 20
740.08332565
 11
565.29992704
 21
749.88952895
  0
LINE
  8
10
 62
     4
 10
586.61016628
 20
771.19976819
 11
595.17531215
 21
779.76491406
  0
LINE
  8
10
 62
     4
 10
523.46303786
 20
705.18885731
 11
531.23337623
 21
712.95919567
  0
LINE
  8
10
 62
     4
 10
555.49372374
 20
737.21954319
 11
565.29992704
 21
747.02574649
  0
LINE
  8
10
 62
     4
 10
587.26862437
 20
768.99444381
 11
595.80140071
 21
777.52722015
  0
LINE
  8
10
 62
     4
 10
526.04539239
 20
704.90742937
 11
534.14212028
 21
713.00415726
  0
LINE
  8
10
 62
     4
 10
555.48119043
 20
734.34322741
 11
565.24528286
 21
744.10731984
  0
LINE
  8
10
 62
     4
 10
587.92708245
 20
766.78911943
 11
596.42748926
 21
775.28952625
  0
LINE
  8
10
 62
     4
 10
528.81372064
 20
704.81197515
 11
537.55714577
 21
713.55540028
  0
LINE
  8
10
 62
     4
 10
555.31641858
 20
731.31467310
 11
565.17544285
 21
741.17369737
  0
LINE
  8
10
 62
     4
 10
588.58554054
 20
764.58379506
 11
597.05357782
 21
773.05183234
  0
LINE
  8
10
 62
     4
 10
531.74807029
 20
704.88254234
 11
541.43630877
 21
714.57078082
  0
LINE
  8
10
 62
     4
 10
554.81754197
 20
727.95201402
 11
565.10560285
 21
738.24007491
  0
LINE
  8
10
 62
     4
 10
589.24399862
 20
762.37847068
 11
597.67966637
 21
770.81413843
  0
LINE
  8
10
 62
     4
 10
534.89222589
 20
705.16291548
 11
546.73269685
 21
717.00338644
  0
LINE
  8
10
 62
     4
 10
553.14850837
 20
723.41919796
 11
565.03576285
 21
735.30645244
  0
LINE
  8
10
 62
     4
 10
589.90245671
 20
760.17314630
 11
598.30575493
 21
768.57644452
  0
LINE
  8
10
 62
     4
 10
538.36207140
 20
705.76897853
 11
564.96592285
 21
732.37282997
  0
LINE
  8
10
 62
     4
 10
590.56091479
 20
757.96782192
 11
598.93184348
 21
766.33875061
  0
LINE
  8
10
 62
     4
 10
542.29033368
 20
706.83345835
 11
564.89608284
 21
729.43920751
  0
LINE
  8
10
 62
     4
 10
591.21937288
 20
755.76249754
 11
599.55793204
 21
764.10105670
  0
LINE
  8
10
 62
     4
 10
547.55735456
 20
709.23669676
 11
564.82624284
 21
726.50558504
  0
LINE
  8
10
 62
     4
 10
591.87783096
 20
753.55717316
 11
600.18402059
 21
761.86336279
  0
LINE
  8
10
 62
     4
 10
555.42251253
 20
714.23807227
 11
564.82580390
 21
723.64136363
  0
LINE
  8
10
 62
     4
 10
592.53628905
 20
751.35184878
 11
600.81010915
 21
759.62566888
  0
LINE
  8
10
 62
     4
 10
555.44660648
 20
711.39838375
 11
564.88946432
 21
720.84124159
  0
LINE
  8
10
 62
     4
 10
593.19474713
 20
749.14652440
 11
601.43619770
 21
757.38797497
  0
LINE
  8
10
 62
     4
 10
634.71220627
 20
790.66398355
 11
634.74536714
 21
790.69714441
  0
LINE
  8
10
 62
     4
 10
555.94926667
 20
709.03726148
 11
564.95312474
 21
718.04111954
  0
LINE
  8
10
 62
     4
 10
593.85320522
 20
746.94120003
 11
602.06228626
 21
755.15028107
  0
LINE
  8
10
 62
     4
 10
633.36142325
 20
786.44941806
 11
637.60914960
 21
790.69714441
  0
LINE
  8
10
 62
     4
 10
557.20483238
 20
707.42904472
 11
565.07471268
 21
715.29892503
  0
LINE
  8
10
 62
     4
 10
594.51166330
 20
744.73587565
 11
602.68837481
 21
752.91258716
  0
LINE
  8
10
 62
     4
 10
632.01156060
 20
782.23577294
 11
640.47293207
 21
790.69714441
  0
LINE
  8
10
 62
     4
 10
559.22810161
 20
706.58853149
 11
565.40829981
 21
712.76872969
  0
LINE
  8
10
 62
     4
 10
595.17012139
 20
742.53055127
 11
603.31446337
 21
750.67489325
  0
LINE
  8
10
 62
     4
 10
630.66169794
 20
778.02212782
 11
643.33671453
 21
790.69714441
  0
LINE
  8
10
 62
     4
 10
561.83960392
 20
706.33625133
 11
566.19634321
 21
710.69299063
  0
LINE
  8
10
 62
     4
 10
595.82857947
 20
740.32522689
 11
603.94055192
 21
748.43719934
  0
LINE
  8
10
 62
     4
 10
629.31183529
 20
773.80848271
 11
645.29811082
 21
789.79475823
  0
LINE
  8
10
 62
     4
 10
564.70026300
 20
706.33312795
 11
567.61637601
 21
709.24924096
  0
LINE
  8
10
 62
     4
 10
596.48703756
 20
738.11990251
 11
604.56664048
 21
746.19950543
  0
LINE
  8
10
 62
     4
 10
627.96197264
 20
769.59483759
 11
645.94578525
 21
787.57865020
  0
LINE
  8
10
 62
     4
 10
567.56476974
 20
706.33385223
 11
569.01952137
 21
707.78860385
  0
LINE
  8
10
 62
     4
 10
597.14549564
 20
735.91457813
 11
605.19272903
 21
743.96181152
  0
LINE
  8
10
 62
     4
 10
626.61210998
 20
765.38119247
 11
646.59345968
 21
785.36254217
  0
LINE
  8
10
 62
     4
 10
597.80395373
 20
733.70925375
 11
605.81881759
 21
741.72411761
  0
LINE
  8
10
 62
     4
 10
625.26224733
 20
761.16754735
 11
638.10505990
 21
774.01035993
  0
LINE
  8
10
 62
     4
 10
639.75197390
 20
775.65727393
 11
647.24113411
 21
783.14643413
  0
LINE
  8
10
 62
     4
 10
598.46241181
 20
731.50392937
 11
606.44490614
 21
739.48642370
  0
LINE
  8
10
 62
     4
 10
623.91238467
 20
756.95390223
 11
636.85507084
 21
769.89658841
  0
LINE
  8
10
 62
     4
 10
640.29595152
 20
773.33746908
 11
647.88880854
 21
780.93032610
  0
LINE
  8
10
 62
     4
 10
599.12086990
 20
729.29860500
 11
607.07099470
 21
737.24872979
  0
LINE
  8
10
 62
     4
 10
622.56252202
 20
752.74025711
 11
635.61896824
 21
765.79670334
  0
LINE
  8
10
 62
     4
 10
640.85667558
 20
771.03441068
 11
648.53648297
 21
778.71421807
  0
LINE
  8
10
 62
     4
 10
599.77932798
 20
727.09328062
 11
607.69708325
 21
735.01103589
  0
LINE
  8
10
 62
     4
 10
621.21265936
 20
748.52661200
 11
634.25792842
 21
761.57188105
  0
LINE
  8
10
 62
     4
 10
641.43993950
 20
768.75389213
 11
649.18415740
 21
776.49811003
  0
LINE
  8
10
 62
     4
 10
600.43778607
 20
724.88795624
 11
608.32317181
 21
732.77334198
  0
LINE
  8
10
 62
     4
 10
619.86279671
 20
744.31296688
 11
632.89688859
 21
757.34705876
  0
LINE
  8
10
 62
     4
 10
642.04191651
 20
766.49208668
 11
649.83183183
 21
774.28200200
  0
LINE
  8
10
 62
     4
 10
601.09624415
 20
722.68263186
 11
608.94926036
 21
730.53564807
  0
LINE
  8
10
 62
     4
 10
618.51293405
 20
740.09932176
 11
631.53584876
 21
753.12223647
  0
LINE
  8
10
 62
     4
 10
642.65450950
 20
764.24089720
 11
650.47950626
 21
772.06589397
  0
LINE
  8
10
 62
     4
 10
601.75470224
 20
720.47730748
 11
609.57542551
 21
728.29803075
  0
LINE
  8
10
 62
     4
 10
617.16307140
 20
735.88567664
 11
630.17480894
 21
748.89741418
  0
LINE
  8
10
 62
     4
 10
643.29112904
 20
762.01373428
 11
651.12718069
 21
769.84978594
  0
LINE
  8
10
 62
     4
 10
602.41316032
 20
718.27198310
 11
610.20435150
 21
726.06317428
  0
LINE
  8
10
 62
     4
 10
615.81320875
 20
731.67203152
 11
628.81376911
 21
744.67259189
  0
LINE
  8
10
 62
     4
 10
643.92865729
 20
759.78748007
 11
651.77485512
 21
767.63367790
  0
LINE
  8
10
 62
     4
 10
603.07161841
 20
716.06665872
 11
610.83098091
 21
723.82602123
  0
LINE
  8
10
 62
     4
 10
614.48114322
 20
727.47618354
 11
627.45272928
 21
740.44776960
  0
LINE
  8
10
 62
     4
 10
644.56618554
 20
757.56122586
 11
652.42252955
 21
765.41756987
  0
LINE
  8
10
 62
     4
 10
603.73007650
 20
713.86133435
 11
611.44013768
 21
721.57139553
  0
LINE
  8
10
 62
     4
 10
613.29451165
 20
723.42576950
 11
626.09168945
 21
736.22294730
  0
LINE
  8
10
 62
     4
 10
645.20371380
 20
755.33497165
 11
653.07020399
 21
763.20146184
  0
LINE
  8
10
 62
     4
 10
604.38853458
 20
711.65600997
 11
624.73064963
 21
731.99812501
  0
LINE
  8
10
 62
     4
 10
645.84124205
 20
753.10871744
 11
653.71787842
 21
760.98535380
  0
LINE
  8
10
 62
     4
 10
605.04699267
 20
709.45068559
 11
623.36960980
 21
727.77330272
  0
LINE
  8
10
 62
     4
 10
646.47877030
 20
750.88246323
 11
654.36555285
 21
758.76924577
  0
LINE
  8
10
 62
     4
 10
605.70545075
 20
707.24536121
 11
622.00856997
 21
723.54848043
  0
LINE
  8
10
 62
     4
 10
647.11629856
 20
748.65620901
 11
655.01322728
 21
756.55313774
  0
LINE
  8
10
 62
     4
 10
685.80119821
 20
787.34110867
 11
689.15723395
 21
790.69714441
  0
LINE
  8
10
 62
     4
 10
607.65633989
 20
706.33246788
 11
620.64753014
 21
719.32365814
  0
LINE
  8
10
 62
     4
 10
647.75382681
 20
746.42995480
 11
655.66090171
 21
754.33702970
  0
LINE
  8
10
 62
     4
 10
684.59590736
 20
783.27203536
 11
692.02101642
 21
790.69714441
  0
LINE
  8
10
 62
     4
 10
610.52012235
 20
706.33246788
 11
619.28649032
 21
715.09883585
  0
LINE
  8
10
 62
     4
 10
648.39135506
 20
744.20370059
 11
656.30857614
 21
752.12092167
  0
LINE
  8
10
 62
     4
 10
683.39061651
 20
779.20296204
 11
694.88479888
 21
790.69714441
  0
LINE
  8
10
 62
     4
 10
613.38390482
 20
706.33246788
 11
617.92545049
 21
710.87401356
  0
LINE
  8
10
 62
     4
 10
649.02888332
 20
741.97744638
 11
656.95625057
 21
749.90481364
  0
LINE
  8
10
 62
     4
 10
682.18532565
 20
775.13388872
 11
695.34885859
 21
788.29742166
  0
LINE
  8
10
 62
     4
 10
616.24768728
 20
706.33246788
 11
616.56441066
 21
706.64919127
  0
LINE
  8
10
 62
     4
 10
649.66641157
 20
739.75119217
 11
657.60392500
 21
747.68870560
  0
LINE
  8
10
 62
     4
 10
680.98003480
 20
771.06481540
 11
694.05848073
 21
784.14326133
  0
LINE
  8
10
 62
     4
 10
650.30393982
 20
737.52493796
 11
658.25159943
 21
745.47259757
  0
LINE
  8
10
 62
     4
 10
679.77474394
 20
766.99574208
 11
692.76810286
 21
779.98910100
  0
LINE
  8
10
 62
     4
 10
650.94146808
 20
735.29868375
 11
658.89927386
 21
743.25648954
  0
LINE
  8
10
 62
     4
 10
678.56945309
 20
762.92666877
 11
691.47772500
 21
775.83494067
  0
LINE
  8
10
 62
     4
 10
651.57899633
 20
733.07242954
 11
659.54694829
 21
741.04038151
  0
LINE
  8
10
 62
     4
 10
677.36416224
 20
758.85759545
 11
690.18734713
 21
771.68078035
  0
LINE
  8
10
 62
     4
 10
652.21652458
 20
730.84617533
 11
660.19462272
 21
738.82427347
  0
LINE
  8
10
 62
     4
 10
676.15887138
 20
754.78852213
 11
688.89696927
 21
767.52662002
  0
LINE
  8
10
 62
     4
 10
652.85405284
 20
728.61992112
 11
660.84229715
 21
736.60816544
  0
LINE
  8
10
 62
     4
 10
674.95358053
 20
750.71944881
 11
687.60659140
 21
763.37245969
  0
LINE
  8
10
 62
     4
 10
653.49158109
 20
726.39366691
 11
661.48997159
 21
734.39205741
  0
LINE
  8
10
 62
     4
 10
673.74828967
 20
746.65037549
 11
686.31621354
 21
759.21829936
  0
LINE
  8
10
 62
     4
 10
654.12910934
 20
724.16741270
 11
662.13401669
 21
732.17232005
  0
LINE
  8
10
 62
     4
 10
672.54299882
 20
742.58130218
 11
685.02583568
 21
755.06413903
  0
LINE
  8
10
 62
     4
 10
654.76663760
 20
721.94115849
 11
662.76322586
 21
729.93774675
  0
LINE
  8
10
 62
     4
 10
671.33770796
 20
738.51222886
 11
683.73545781
 21
750.90997870
  0
LINE
  8
10
 62
     4
 10
711.61451690
 20
778.78903779
 11
720.07784364
 21
787.25236453
  0
LINE
  8
10
 62
     4
 10
655.40416585
 20
719.71490428
 11
663.38157652
 21
727.69231495
  0
LINE
  8
10
 62
     4
 10
670.13241711
 20
734.44315554
 11
682.44507995
 21
746.75581838
  0
LINE
  8
10
 62
     4
 10
709.37296408
 20
773.68370251
 11
725.62178951
 21
789.93252794
  0
LINE
  8
10
 62
     4
 10
656.04169410
 20
717.48865007
 11
663.99127774
 21
725.43823371
  0
LINE
  8
10
 62
     4
 10
668.92712626
 20
730.37408222
 11
681.15470208
 21
742.60165805
  0
LINE
  8
10
 62
     4
 10
708.50490351
 20
769.95185947
 11
729.77959049
 21
791.22654646
  0
LINE
  8
10
 62
     4
 10
656.67922236
 20
715.26239586
 11
664.60067260
 21
723.18384610
  0
LINE
  8
10
 62
     4
 10
667.74941225
 20
726.33258575
 11
679.86432422
 21
738.44749772
  0
LINE
  8
10
 62
     4
 10
708.14936807
 20
766.73254157
 11
733.38112917
 21
791.96430267
  0
LINE
  8
10
 62
     4
 10
657.31675061
 20
713.03614165
 11
665.21819440
 21
720.93758544
  0
LINE
  8
10
 62
     4
 10
666.62312103
 20
722.34251207
 11
678.57394635
 21
734.29333739
  0
LINE
  8
10
 62
     4
 10
657.95427886
 20
710.80988744
 11
677.28356849
 21
730.13917706
  0
LINE
  8
10
 62
     4
 10
658.59180712
 20
708.58363323
 11
675.99319063
 21
725.98501674
  0
LINE
  8
10
 62
     4
 10
659.22939789
 20
706.35744153
 11
674.70281276
 21
721.83085641
  0
LINE
  8
10
 62
     4
 10
662.06820670
 20
706.33246788
 11
673.41243490
 21
717.67669608
  0
LINE
  8
10
 62
     4
 10
664.93198916
 20
706.33246788
 11
672.12205703
 21
713.52253575
  0
LINE
  8
10
 62
     4
 10
667.79577163
 20
706.33246788
 11
670.83167917
 21
709.36837542
  0
LINE
  8
10
 62
     4
 10
708.09522999
 20
763.81462103
 11
736.66163466
 21
792.38102570
  0
LINE
  8
10
 62
     4
 10
710.95901245
 20
763.81462103
 11
719.33787564
 21
772.19348422
  0
LINE
  8
10
 62
     4
 10
730.15036785
 20
783.00597642
 11
739.68937384
 21
792.54498242
  0
LINE
  8
10
 62
     4
 10
713.82279492
 20
763.81462103
 11
718.56000983
 21
768.55183594
  0
LINE
  8
10
 62
     4
 10
733.87066003
 20
783.86248614
 11
742.52107400
 21
792.51290011
  0
LINE
  8
10
 62
     4
 10
716.68657738
 20
763.81462103
 11
718.28730143
 21
765.41534508
  0
LINE
  8
10
 62
     4
 10
737.07106202
 20
784.19910566
 11
745.18807360
 21
792.31611725
  0
LINE
  8
10
 62
     4
 10
739.99986993
 20
784.26413112
 11
747.71051846
 21
791.97477965
  0
LINE
  8
10
 62
     4
 10
742.70655635
 20
784.10703507
 11
750.09830381
 21
791.49878253
  0
LINE
  8
10
 62
     4
 10
745.20062397
 20
783.73732023
 11
752.35238700
 21
790.88908326
  0
LINE
  8
10
 62
     4
 10
747.47030485
 20
783.14321864
 11
754.46967228
 21
790.14258607
  0
LINE
  8
10
 62
     4
 10
710.98652672
 20
743.79565805
 11
714.18461505
 21
746.99374638
  0
LINE
  8
10
 62
     4
 10
749.50491901
 20
782.31405034
 11
756.44324395
 21
789.25237527
  0
LINE
  8
10
 62
     4
 10
707.30080771
 20
737.24615657
 11
721.08375881
 21
751.02910767
  0
LINE
  8
10
 62
     4
 10
751.29567807
 20
781.24102694
 11
758.26210803
 21
788.20745690
  0
LINE
  8
10
 62
     4
 10
706.27569701
 20
733.35726341
 11
725.39408461
 21
752.47565101
  0
LINE
  8
10
 62
     4
 10
752.83632985
 20
779.91789625
 11
759.91045201
 21
786.99201841
  0
LINE
  8
10
 62
     4
 10
705.92572064
 20
730.14350458
 11
729.16726914
 21
753.38505308
  0
LINE
  8
10
 62
     4
 10
754.12395588
 20
778.34173982
 11
761.37091035
 21
785.58869428
  0
LINE
  8
10
 62
     4
 10
705.93646859
 20
727.29047006
 11
732.69219023
 21
754.04619170
  0
LINE
  8
10
 62
     4
 10
755.15586895
 20
776.50987043
 11
762.66399322
 21
784.01799470
  0
LINE
  8
10
 62
     4
 10
706.20901537
 20
724.69923438
 11
718.36730597
 21
736.85752498
  0
LINE
  8
10
 62
     4
 10
725.07582403
 20
743.56604304
 11
736.08109417
 21
754.57131318
  0
LINE
  8
10
 62
     4
 10
755.92684878
 20
774.41706779
 11
763.77587135
 21
782.26609036
  0
LINE
  8
10
 62
     4
 10
706.68130953
 20
722.30774608
 11
716.97489614
 21
732.60133269
  0
LINE
  8
10
 62
     4
 10
730.12705274
 20
745.75348928
 11
739.40417726
 21
755.03061380
  0
LINE
  8
10
 62
     4
 10
756.45545245
 20
772.08188900
 11
764.70054963
 21
780.32698618
  0
LINE
  8
10
 62
     4
 10
707.32007592
 20
720.08273000
 11
716.70922603
 21
729.47188012
  0
LINE
  8
10
 62
     4
 10
734.04850846
 20
746.81116254
 11
742.66593070
 21
755.42858478
  0
LINE
  8
10
 62
     4
 10
756.76519201
 20
769.52784609
 11
765.43721051
 21
778.19986459
  0
LINE
  8
10
 62
     4
 10
708.11078678
 20
718.00965840
 11
716.89510048
 21
726.79397210
  0
LINE
  8
10
 62
     4
 10
737.60046193
 20
747.49933355
 11
745.89747402
 21
755.79634564
  0
LINE
  8
10
 62
     4
 10
756.90657362
 20
766.80544524
 11
765.98846506
 21
775.88733668
  0
LINE
  8
10
 62
     4
 10
709.04286490
 20
716.07795405
 11
717.39614957
 21
724.43123872
  0
LINE
  8
10
 62
     4
 10
740.97894497
 20
748.01403412
 11
749.12901735
 21
756.16410650
  0
LINE
  8
10
 62
     4
 10
756.95041333
 20
763.98550248
 11
766.36517881
 21
773.40026796
  0
LINE
  8
10
 62
     4
 10
710.11744488
 20
714.28875157
 11
718.15603718
 21
722.32734387
  0
LINE
  8
10
 62
     4
 10
744.32712923
 20
748.49843592
 11
752.36056067
 21
756.53186736
  0
LINE
  8
10
 62
     4
 10
756.95041333
 20
761.12172002
 11
766.59035207
 21
770.76165876
  0
LINE
  8
10
 62
     4
 10
711.34066342
 20
712.64818765
 11
719.14313510
 21
720.45065933
  0
LINE
  8
10
 62
     4
 10
747.63095610
 20
748.93848032
 11
755.59210399
 21
756.89962821
  0
LINE
  8
10
 62
     4
 10
756.95041333
 20
758.25793756
 11
766.70675915
 21
768.01428338
  0
LINE
  8
10
 62
     4
 10
712.70546822
 20
711.14920999
 11
720.34326124
 21
718.78700300
  0
LINE
  8
10
 62
     4
 10
750.88950146
 20
749.33324322
 11
766.75661663
 21
765.20035839
  0
LINE
  8
10
 62
     4
 10
714.18891431
 20
709.76887361
 11
721.73405020
 21
717.31400950
  0
LINE
  8
10
 62
     4
 10
754.10069965
 20
749.68065895
 11
766.75661663
 21
762.33657593
  0
LINE
  8
10
 62
     4
 10
715.83150775
 20
708.54768458
 11
723.32433749
 21
716.04051432
  0
LINE
  8
10
 62
     4
 10
756.95041333
 20
749.66659016
 11
766.75661663
 21
759.47279347
  0
LINE
  8
10
 62
     4
 10
717.63221644
 20
707.48461081
 11
725.10382354
 21
714.95621791
  0
LINE
  8
10
 62
     4
 10
756.95041333
 20
746.80280770
 11
766.75661663
 21
756.60901100
  0
LINE
  8
10
 62
     4
 10
719.60039120
 20
706.58900311
 11
727.08993860
 21
714.07855050
  0
LINE
  8
10
 62
     4
 10
756.95041333
 20
743.93902524
 11
766.75661663
 21
753.74522854
  0
LINE
  8
10
 62
     4
 10
721.74329130
 20
705.86812074
 11
729.30043908
 21
713.42526852
  0
LINE
  8
10
 62
     4
 10
756.95041333
 20
741.07524277
 11
766.75661663
 21
750.88144608
  0
LINE
  8
10
 62
     4
 10
724.07018996
 20
705.33123694
 11
731.76646902
 21
713.02751600
  0
LINE
  8
10
 62
     4
 10
756.95041333
 20
738.21146031
 11
766.75661663
 21
748.01766361
  0
LINE
  8
10
 62
     4
 10
726.58652632
 20
704.98379084
 11
734.54403749
 21
712.94130201
  0
LINE
  8
10
 62
     4
 10
756.95041333
 20
735.34767784
 11
766.72616265
 21
745.12342717
  0
LINE
  8
10
 62
     4
 10
729.29249727
 20
704.82597932
 11
737.77615237
 21
713.30963442
  0
LINE
  8
10
 62
     4
 10
756.85137373
 20
732.38485579
 11
766.65632265
 21
742.18980470
  0
LINE
  8
10
 62
     4
 10
732.16631683
 20
704.83601642
 11
741.44493350
 21
714.11463309
  0
LINE
  8
10
 62
     4
 10
756.50976315
 20
729.17946274
 11
766.58648265
 21
739.25618224
  0
LINE
  8
10
 62
     4
 10
735.22499101
 20
705.03090813
 11
746.04039758
 21
715.84631470
  0
LINE
  8
10
 62
     4
 10
755.46701935
 20
725.27293647
 11
766.51664265
 21
736.32255977
  0
LINE
  8
10
 62
     4
 10
738.57862227
 20
705.52075693
 11
766.44680264
 21
733.38893730
  0
LINE
  8
10
 62
     4
 10
742.28670029
 20
706.36505249
 11
766.37696264
 21
730.45531484
  0
LINE
  8
10
 62
     4
 10
746.91675197
 20
708.13132171
 11
766.30712264
 21
727.52169237
  0
LINE
  8
10
 62
     4
 10
756.92400184
 20
715.27478911
 11
766.26044368
 21
724.61123095
  0
LINE
  8
10
 62
     4
 10
756.85830212
 20
712.34530693
 11
766.32410410
 21
721.81110890
  0
LINE
  8
10
 62
     4
 10
757.15672658
 20
709.77994892
 11
766.38776451
 21
719.01098686
  0
LINE
  8
10
 62
     4
 10
758.13412281
 20
707.89356268
 11
766.47458539
 21
716.23402527
  0
LINE
  8
10
 62
     4
 10
759.90625589
 20
706.80191331
 11
766.71183189
 21
713.60748930
  0
LINE
  8
10
 62
     4
 10
762.33795664
 20
706.36983159
 11
767.31313520
 21
711.34501015
  0
LINE
  8
10
 62
     4
 10
765.16478460
 20
706.33287709
 11
768.51139450
 21
709.67948699
  0
LINE
  8
10
 62
     4
 10
768.02929134
 20
706.33360136
 11
770.30004659
 21
708.60435661
  0
POLYLINE
  8
10
 62
     4
 66
     1
  0
VERTEX
  8
10
 10
852.76125023
 20
800.28396828
  0
VERTEX
  8
10
 10
850.88579876
 20
799.38439594
  0
VERTEX
  8
10
 10
849.08264800
 20
798.45186546
  0
VERTEX
  8
10
 10
847.36246272
 20
797.48781594
  0
VERTEX
  8
10
 10
845.73590765
 20
796.49368645
  0
VERTEX
  8
10
 10
844.21364745
 20
795.47091611
  0
VERTEX
  8
10
 10
842.80634693
 20
794.42094400
  0
VERTEX
  8
10
 10
841.52467071
 20
793.34520923
  0
VERTEX
  8
10
 10
840.37928358
 20
792.24515086
  0
VERTEX
  8
10
 10
839.38085025
 20
791.12220799
  0
VERTEX
  8
10
 10
838.54003541
 20
789.97781974
  0
VERTEX
  8
10
 10
837.86750379
 20
788.81342520
  0
VERTEX
  8
10
 10
837.37392016
 20
787.63046344
  0
VERTEX
  8
10
 10
837.06994917
 20
786.43037355
  0
VERTEX
  8
10
 10
836.96625556
 20
785.21459464
  0
VERTEX
  8
10
 10
836.99652598
 20
783.92533776
  0
VERTEX
  8
10
 10
837.08637808
 20
782.51107758
  0
VERTEX
  8
10
 10
837.23437312
 20
780.98247903
  0
VERTEX
  8
10
 10
837.43907228
 20
779.35020702
  0
VERTEX
  8
10
 10
837.69903680
 20
777.62492647
  0
VERTEX
  8
10
 10
838.01282791
 20
775.81730238
  0
VERTEX
  8
10
 10
838.37900681
 20
773.93799964
  0
VERTEX
  8
10
 10
838.79613479
 20
771.99768318
  0
VERTEX
  8
10
 10
839.26277305
 20
770.00701795
  0
VERTEX
  8
10
 10
839.77748282
 20
767.97666889
  0
VERTEX
  8
10
 10
840.33882531
 20
765.91730091
  0
VERTEX
  8
10
 10
840.94536176
 20
763.83957896
  0
VERTEX
  8
10
 10
841.59565341
 20
761.75416798
  0
VERTEX
  8
10
 10
842.28826146
 20
759.67173287
  0
VERTEX
  8
10
 10
843.02174719
 20
757.60293862
  0
VERTEX
  8
10
 10
843.79467176
 20
755.55845010
  0
VERTEX
  8
10
 10
844.60559645
 20
753.54893229
  0
VERTEX
  8
10
 10
845.45308246
 20
751.58505013
  0
VERTEX
  8
10
 10
846.33569100
 20
749.67746850
  0
VERTEX
  8
10
 10
847.25198337
 20
747.83685241
  0
VERTEX
  8
10
 10
848.20052075
 20
746.07386674
  0
VERTEX
  8
10
 10
849.17986434
 20
744.39917642
  0
VERTEX
  8
10
 10
850.18857541
 20
742.82344641
  0
VERTEX
  8
10
 10
851.22521520
 20
741.35734164
  0
VERTEX
  8
10
 10
852.28834489
 20
740.01152702
  0
VERTEX
  8
10
 10
853.37652578
 20
738.79666751
  0
VERTEX
  8
10
 10
854.48831900
 20
737.72342807
  0
VERTEX
  8
10
 10
855.62228586
 20
736.80247355
  0
VERTEX
  8
10
 10
856.77698754
 20
736.04446897
  0
VERTEX
  8
10
 10
857.95098530
 20
735.46007922
  0
VERTEX
  8
10
 10
859.14284035
 20
735.05996925
  0
VERTEX
  8
10
 10
860.35111393
 20
734.85480397
  0
VERTEX
  8
10
 10
861.58923885
 20
734.83625599
  0
VERTEX
  8
10
 10
862.94222431
 20
734.89649686
  0
VERTEX
  8
10
 10
864.41488725
 20
735.01559939
  0
VERTEX
  8
10
 10
865.99656251
 20
735.19212438
  0
VERTEX
  8
10
 10
867.67658494
 20
735.42463262
  0
VERTEX
  8
10
 10
869.44428946
 20
735.71168491
  0
VERTEX
  8
10
 10
871.28901083
 20
736.05184206
  0
VERTEX
  8
10
 10
871.48143908
 20
736.09129517
  0
VERTEX
  8
10
 10
874.14739071
 20
736.65955842
  0
VERTEX
  8
10
 10
876.81334234
 20
737.28742858
  0
VERTEX
  8
10
 10
877.17862481
 20
737.37655059
  0
VERTEX
  8
10
 10
879.22476224
 20
737.91473516
  0
VERTEX
  8
10
 10
881.29459085
 20
738.49882857
  0
VERTEX
  8
10
 10
883.37744547
 20
739.12739161
  0
VERTEX
  8
10
 10
885.46266091
 20
739.79898513
  0
VERTEX
  8
10
 10
887.53957206
 20
740.51216989
  0
VERTEX
  8
10
 10
889.59751379
 20
741.26550668
  0
VERTEX
  8
10
 10
891.62582091
 20
742.05755636
  0
VERTEX
  8
10
 10
893.61382829
 20
742.88687967
  0
VERTEX
  8
10
 10
895.55087082
 20
743.75203746
  0
VERTEX
  8
10
 10
897.42628327
 20
744.65159046
  0
VERTEX
  8
10
 10
899.22940054
 20
745.58409954
  0
VERTEX
  8
10
 10
900.94955749
 20
746.54812546
  0
VERTEX
  8
10
 10
902.57608896
 20
747.54222903
  0
VERTEX
  8
10
 10
904.09832981
 20
748.56497108
  0
VERTEX
  8
10
 10
905.50561487
 20
749.61491237
  0
VERTEX
  8
10
 10
906.78727901
 20
750.69061369
  0
VERTEX
  8
10
 10
907.93265711
 20
751.79063588
  0
VERTEX
  8
10
 10
908.93108393
 20
752.91353972
  0
VERTEX
  8
10
 10
909.77189444
 20
754.05788602
  0
VERTEX
  8
10
 10
910.44442339
 20
755.22223556
  0
VERTEX
  8
10
 10
910.93800568
 20
756.40514916
  0
VERTEX
  8
10
 10
911.24197617
 20
757.60518762
  0
VERTEX
  8
10
 10
911.34566971
 20
758.82091172
  0
VERTEX
  8
10
 10
911.31539935
 20
760.11022340
  0
VERTEX
  8
10
 10
911.22554775
 20
761.52453502
  0
VERTEX
  8
10
 10
911.07755410
 20
763.05318174
  0
VERTEX
  8
10
 10
910.87285757
 20
764.68549874
  0
VERTEX
  8
10
 10
910.61289739
 20
766.41082124
  0
VERTEX
  8
10
 10
910.29911278
 20
768.21848435
  0
VERTEX
  8
10
 10
909.93294291
 20
770.09782328
  0
VERTEX
  8
10
 10
909.51582698
 20
772.03817316
  0
VERTEX
  8
10
 10
909.04920422
 20
774.02886924
  0
VERTEX
  8
10
 10
908.53451378
 20
776.05924660
  0
VERTEX
  8
10
 10
907.97319493
 20
778.11864049
  0
VERTEX
  8
10
 10
907.36668677
 20
780.19638604
  0
VERTEX
  8
10
 10
906.71642861
 20
782.28181842
  0
VERTEX
  8
10
 10
906.02385955
 20
784.36427287
  0
VERTEX
  8
10
 10
905.29041887
 20
786.43308446
  0
VERTEX
  8
10
 10
904.51754573
 20
788.47758845
  0
VERTEX
  8
10
 10
903.70667934
 20
790.48711994
  0
VERTEX
  8
10
 10
902.85925891
 20
792.45101415
  0
VERTEX
  8
10
 10
901.97672363
 20
794.35860627
  0
VERTEX
  8
10
 10
901.06051266
 20
796.19923142
  0
VERTEX
  8
10
 10
900.11206528
 20
797.96222481
  0
VERTEX
  8
10
 10
899.13282061
 20
799.63692159
  0
VERTEX
  8
10
 10
898.12421792
 20
801.21265698
  0
VERTEX
  8
10
 10
897.08769635
 20
802.67876608
  0
VERTEX
  8
10
 10
896.02469513
 20
804.02458411
  0
SEQEND
  8
10
  0
POLYLINE
  8
10
 62
     4
 66
     1
  0
VERTEX
  8
10
 10
895.60469768
 20
804.49353583
  0
VERTEX
  8
10
 10
894.93665348
 20
805.23944625
  0
VERTEX
  8
10
 10
893.82501058
 20
806.31268764
  0
VERTEX
  8
10
 10
892.69120560
 20
807.23364348
  0
VERTEX
  8
10
 10
891.53667778
 20
807.99164892
  0
VERTEX
  8
10
 10
890.36286631
 20
808.57603917
  0
VERTEX
  8
10
 10
889.17121039
 20
808.97614935
  0
VERTEX
  8
10
 10
887.96314919
 20
809.18131469
  0
VERTEX
  8
10
 10
886.72502427
 20
809.19986268
  0
VERTEX
  8
10
 10
885.37182643
 20
809.13962173
  0
VERTEX
  8
10
 10
883.89896436
 20
809.02051899
  0
VERTEX
  8
10
 10
882.31710284
 20
808.84399350
  0
VERTEX
  8
10
 10
880.63690651
 20
808.61148442
  0
VERTEX
  8
10
 10
878.86904012
 20
808.32443078
  0
VERTEX
  8
10
 10
877.02416843
 20
807.98427170
  0
VERTEX
  8
10
 10
876.81334234
 20
807.94104939
  0
VERTEX
  8
10
 10
875.49390666
 20
807.66530824
  0
VERTEX
  8
10
 10
874.83418881
 20
807.52910135
  0
VERTEX
  8
10
 10
873.50121299
 20
807.22990800
  0
VERTEX
  8
10
 10
872.82795503
 20
807.06692153
  0
VERTEX
  8
10
 10
871.48143908
 20
806.74427597
  0
VERTEX
  8
10
 10
871.13416852
 20
806.65955276
  0
VERTEX
  8
10
 10
869.08792271
 20
806.12136285
  0
VERTEX
  8
10
 10
867.01799515
 20
805.53726298
  0
VERTEX
  8
10
 10
864.93505056
 20
804.90869222
  0
VERTEX
  8
10
 10
862.84975371
 20
804.23708967
  0
VERTEX
  8
10
 10
860.77276927
 20
803.52389440
  0
VERTEX
  8
10
 10
858.71476199
 20
802.77054555
  0
VERTEX
  8
10
 10
856.68639658
 20
801.97848219
  0
VERTEX
  8
10
 10
854.69833776
 20
801.14914342
  0
VERTEX
  8
10
 10
852.76125023
 20
800.28396828
  0
SEQEND
  8
10
  0
POLYLINE
  8
10
 62
     4
 66
     1
  0
VERTEX
  8
10
 10
852.39140500
 20
721.25306859
  0
VERTEX
  8
10
 10
854.61484115
 20
720.20627152
  0
VERTEX
  8
10
 10
856.88261297
 20
719.31526793
  0
VERTEX
  8
10
 10
859.19184250
 20
718.58754774
  0
VERTEX
  8
10
 10
861.53965173
 20
718.03060079
  0
VERTEX
  8
10
 10
863.92316270
 20
717.65191701
  0
VERTEX
  8
10
 10
866.33949745
 20
717.45898621
  0
VERTEX
  8
10
 10
868.78792531
 20
717.44971393
  0
VERTEX
  8
10
 10
871.27672221
 20
717.57019592
  0
VERTEX
  8
10
 10
871.48143908
 20
717.58951625
  0
VERTEX
  8
10
 10
872.81441489
 20
717.67142412
  0
VERTEX
  8
10
 10
874.14739071
 20
717.83523987
  0
VERTEX
  8
10
 10
875.48036653
 20
717.99905562
  0
VERTEX
  8
10
 10
876.81334234
 20
718.24477925
  0
VERTEX
  8
10
 10
878.92445463
 20
718.62647372
  0
VERTEX
  8
10
 10
881.50917621
 20
719.20058367
  0
VERTEX
  8
10
 10
884.09915160
 20
719.88090566
  0
VERTEX
  8
10
 10
886.68688986
 20
720.66456175
  0
VERTEX
  8
10
 10
889.26490003
 20
721.54867396
  0
VERTEX
  8
10
 10
891.82569114
 20
722.53036433
  0
VERTEX
  8
10
 10
894.36177233
 20
723.60675485
  0
VERTEX
  8
10
 10
896.86565255
 20
724.77496757
  0
VERTEX
  8
10
 10
899.32984091
 20
726.03212454
  0
VERTEX
  8
10
 10
901.74684648
 20
727.37534774
  0
VERTEX
  8
10
 10
904.10917828
 20
728.80175923
  0
VERTEX
  8
10
 10
906.40934536
 20
730.30848101
  0
VERTEX
  8
10
 10
908.63985680
 20
731.89263515
  0
VERTEX
  8
10
 10
910.79322165
 20
733.55134369
  0
VERTEX
  8
10
 10
912.86194893
 20
735.28172858
  0
VERTEX
  8
10
 10
914.83854775
 20
737.08091191
  0
VERTEX
  8
10
 10
916.71552713
 20
738.94601569
  0
VERTEX
  8
10
 10
918.48539611
 20
740.87416193
  0
VERTEX
  8
10
 10
920.14066380
 20
742.86247270
  0
VERTEX
  8
10
 10
921.67383918
 20
744.90807001
  0
VERTEX
  8
10
 10
923.07743137
 20
747.00807591
  0
VERTEX
  8
10
 10
924.34394938
 20
749.15961237
  0
VERTEX
  8
10
 10
925.46590226
 20
751.35980146
  0
VERTEX
  8
10
 10
926.43579910
 20
753.60576519
  0
VERTEX
  8
10
 10
927.24614894
 20
755.89462560
  0
VERTEX
  8
10
 10
927.88946084
 20
758.22350473
  0
VERTEX
  8
10
 10
928.35824384
 20
760.58952458
  0
VERTEX
  8
10
 10
928.64500700
 20
762.98980720
  0
VERTEX
  8
10
 10
928.74225938
 20
765.42147457
  0
VERTEX
  8
10
 10
928.68171861
 20
767.88974227
  0
VERTEX
  8
10
 10
928.50201488
 20
770.39697651
  0
VERTEX
  8
10
 10
928.20602618
 20
772.93568636
  0
VERTEX
  8
10
 10
927.79663052
 20
775.49838081
  0
VERTEX
  8
10
 10
927.27670583
 20
778.07756901
  0
VERTEX
  8
10
 10
926.64913011
 20
780.66575996
  0
VERTEX
  8
10
 10
925.91678133
 20
783.25546271
  0
VERTEX
  8
10
 10
925.08253742
 20
785.83918633
  0
VERTEX
  8
10
 10
924.14927637
 20
788.40943986
  0
VERTEX
  8
10
 10
923.11987620
 20
790.95873237
  0
VERTEX
  8
10
 10
921.99721482
 20
793.47957291
  0
VERTEX
  8
10
 10
920.78417025
 20
795.96447056
  0
VERTEX
  8
10
 10
919.48362040
 20
798.40593432
  0
VERTEX
  8
10
 10
918.09844333
 20
800.79647328
  0
VERTEX
  8
10
 10
916.63151692
 20
803.12859647
  0
VERTEX
  8
10
 10
915.08571921
 20
805.39481301
  0
VERTEX
  8
10
 10
913.46392813
 20
807.58763184
  0
VERTEX
  8
10
 10
911.76902169
 20
809.69956211
  0
VERTEX
  8
10
 10
910.00387784
 20
811.72311285
  0
VERTEX
  8
10
 10
908.17137452
 20
813.65079309
  0
VERTEX
  8
10
 10
906.27438976
 20
815.47511190
  0
VERTEX
  8
10
 10
904.31580151
 20
817.18857834
  0
VERTEX
  8
10
 10
902.29848771
 20
818.78370145
  0
VERTEX
  8
10
 10
900.22532639
 20
820.25299032
  0
VERTEX
  8
10
 10
898.09919548
 20
821.58895396
  0
VERTEX
  8
10
 10
895.92297294
 20
822.78410143
  0
VERTEX
  8
10
 10
893.69953679
 20
823.83094179
  0
VERTEX
  8
10
 10
891.43176497
 20
824.72198412
  0
VERTEX
  8
10
 10
889.12253544
 20
825.44973745
  0
VERTEX
  8
10
 10
886.77472621
 20
826.00671083
  0
VERTEX
  8
10
 10
884.39121524
 20
826.38541332
  0
VERTEX
  8
10
 10
881.97488049
 20
826.57835396
  0
VERTEX
  8
10
 10
879.52645263
 20
826.58762799
  0
VERTEX
  8
10
 10
877.03765573
 20
826.46714933
  0
VERTEX
  8
10
 10
875.64860156
 20
826.33080194
  0
VERTEX
  8
10
 10
874.26361073
 20
826.17643944
  0
VERTEX
  8
10
 10
872.87049324
 20
825.99174785
  0
VERTEX
  8
10
 10
871.48143908
 20
825.78904115
  0
VERTEX
  8
10
 10
869.38992331
 20
825.41089972
  0
VERTEX
  8
10
 10
866.80520173
 20
824.83680445
  0
VERTEX
  8
10
 10
864.21522634
 20
824.15649945
  0
VERTEX
  8
10
 10
861.62748808
 20
823.37286245
  0
VERTEX
  8
10
 10
859.04947791
 20
822.48877121
  0
VERTEX
  8
10
 10
856.48868680
 20
821.50710348
  0
VERTEX
  8
10
 10
853.95260561
 20
820.43073703
  0
VERTEX
  8
10
 10
851.44872539
 20
819.26254962
  0
VERTEX
  8
10
 10
848.98453703
 20
818.00541899
  0
VERTEX
  8
10
 10
846.56753146
 20
816.66222287
  0
VERTEX
  8
10
 10
844.20519966
 20
815.23583911
  0
VERTEX
  8
10
 10
841.90503258
 20
813.72914538
  0
VERTEX
  8
10
 10
839.67452114
 20
812.14501950
  0
VERTEX
  8
10
 10
837.52115629
 20
810.48633918
  0
VERTEX
  8
10
 10
835.45242901
 20
808.75598219
  0
VERTEX
  8
10
 10
833.47583019
 20
806.95682631
  0
VERTEX
  8
10
 10
831.59885081
 20
805.09174926
  0
VERTEX
  8
10
 10
829.82898182
 20
803.16362885
  0
VERTEX
  8
10
 10
828.17371414
 20
801.17534279
  0
VERTEX
  8
10
 10
826.64053876
 20
799.12976887
  0
VERTEX
  8
10
 10
825.23694657
 20
797.02978480
  0
VERTEX
  8
10
 10
823.97042856
 20
794.87826842
  0
VERTEX
  8
10
 10
822.84847568
 20
792.67809739
  0
VERTEX
  8
10
 10
821.87857884
 20
790.43214955
  0
VERTEX
  8
10
 10
821.06822900
 20
788.14330260
  0
VERTEX
  8
10
 10
820.42491710
 20
785.81443436
  0
VERTEX
  8
10
 10
819.95613410
 20
783.44842251
  0
VERTEX
  8
10
 10
819.66937094
 20
781.04814486
  0
VERTEX
  8
10
 10
819.57211855
 20
778.61647916
  0
VERTEX
  8
10
 10
819.63265933
 20
776.14799737
  0
VERTEX
  8
10
 10
819.81236306
 20
773.64057236
  0
VERTEX
  8
10
 10
820.10835176
 20
771.10169391
  0
VERTEX
  8
10
 10
820.51774742
 20
768.53885197
  0
VERTEX
  8
10
 10
821.03767211
 20
765.95953638
  0
VERTEX
  8
10
 10
821.66524782
 20
763.37123705
  0
VERTEX
  8
10
 10
822.39759661
 20
760.78144380
  0
VERTEX
  8
10
 10
823.23184052
 20
758.19764656
  0
VERTEX
  8
10
 10
824.16510157
 20
755.62733520
  0
VERTEX
  8
10
 10
825.19450174
 20
753.07799958
  0
VERTEX
  8
10
 10
826.31716312
 20
750.55712953
  0
VERTEX
  8
10
 10
827.53020769
 20
748.07221499
  0
VERTEX
  8
10
 10
828.83075754
 20
745.63074583
  0
VERTEX
  8
10
 10
830.21593461
 20
743.24021192
  0
VERTEX
  8
10
 10
831.68286102
 20
740.90810312
  0
VERTEX
  8
10
 10
833.22865873
 20
738.64190930
  0
VERTEX
  8
10
 10
834.85044981
 20
736.44912036
  0
VERTEX
  8
10
 10
836.54535625
 20
734.33722617
  0
VERTEX
  8
10
 10
838.31050010
 20
732.31371663
  0
VERTEX
  8
10
 10
840.14300342
 20
730.38608153
  0
VERTEX
  8
10
 10
842.03998817
 20
728.56181085
  0
VERTEX
  8
10
 10
843.99857643
 20
726.84839439
  0
VERTEX
  8
10
 10
846.01589023
 20
725.25332208
  0
VERTEX
  8
10
 10
848.08905155
 20
723.78408375
  0
VERTEX
  8
10
 10
850.21518246
 20
722.44816928
  0
VERTEX
  8
10
 10
852.39140500
 20
721.25306859
  0
SEQEND
  8
10
  0
POLYLINE
  8
10
 62
     4
 66
     1
  0
VERTEX
  8
10
 10
856.89570003
 20
754.70422177
  0
VERTEX
  8
10
 10
856.89570003
 20
789.20882591
  0
VERTEX
  8
10
 10
891.39908138
 20
789.20882591
  0
VERTEX
  8
10
 10
891.39908138
 20
754.70422177
  0
VERTEX
  8
10
 10
856.89570003
 20
754.70422177
  0
SEQEND
  8
10
  0
LINE
  8
10
 62
     4
 10
891.19236825
 20
754.70422177
 11
891.39908138
 21
754.91093491
  0
CIRCLE
  8
10
 62
     4
 10
874.15596263
 20
772.01836503
 40
72.34214534
  0
POLYLINE
  8
10
 62
     4
 66
     1
  0
VERTEX
  8
10
 10
845.53916957
 20
829.27706129
  0
VERTEX
  8
10
 10
842.73544850
 20
827.77235528
  0
VERTEX
  8
10
 10
839.99978517
 20
826.15308528
  0
VERTEX
  8
10
 10
837.33826345
 20
824.42295819
  0
VERTEX
  8
10
 10
834.75696728
 20
822.58568095
  0
VERTEX
  8
10
 10
832.26198047
 20
820.64496044
  0
VERTEX
  8
10
 10
829.85938689
 20
818.60450363
  0
VERTEX
  8
10
 10
827.55527043
 20
816.46801739
  0
VERTEX
  8
10
 10
825.35571497
 20
814.23920865
  0
VERTEX
  8
10
 10
823.26680432
 20
811.92178430
  0
VERTEX
  8
10
 10
821.29462242
 20
809.51945133
  0
VERTEX
  8
10
 10
819.44525310
 20
807.03591660
  0
VERTEX
  8
10
 10
817.72478024
 20
804.47488702
  0
VERTEX
  8
10
 10
816.13928769
 20
801.84006952
  0
VERTEX
  8
10
 10
814.69485933
 20
799.13517105
  0
VERTEX
  8
10
 10
813.39757907
 20
796.36389848
  0
VERTEX
  8
10
 10
812.25353069
 20
793.52995871
  0
VERTEX
  8
10
 10
811.26879813
 20
790.63705871
  0
VERTEX
  8
10
 10
810.44946525
 20
787.68890541
  0
VERTEX
  8
10
 10
809.80161592
 20
784.68920565
  0
VERTEX
  8
10
 10
809.33133394
 20
781.64166639
  0
VERTEX
  8
10
 10
809.04470328
 20
778.54999455
  0
VERTEX
  8
10
 10
808.94780777
 20
775.41789706
  0
VERTEX
  8
10
 10
809.02578846
 20
772.26677706
  0
VERTEX
  8
10
 10
809.25725915
 20
769.11985460
  0
VERTEX
  8
10
 10
809.63851266
 20
765.98321249
  0
VERTEX
  8
10
 10
810.16584194
 20
762.86293340
  0
VERTEX
  8
10
 10
810.83553975
 20
759.76510019
  0
VERTEX
  8
10
 10
811.64389900
 20
756.69579560
  0
VERTEX
  8
10
 10
812.58721254
 20
753.66110239
  0
VERTEX
  8
10
 10
813.66177327
 20
750.66710328
  0
VERTEX
  8
10
 10
814.86387400
 20
747.71988111
  0
VERTEX
  8
10
 10
816.18980763
 20
744.82551865
  0
VERTEX
  8
10
 10
817.63586699
 20
741.99009857
  0
VERTEX
  8
10
 10
819.19834499
 20
739.21970373
  0
VERTEX
  8
10
 10
820.87353444
 20
736.52041687
  0
VERTEX
  8
10
 10
822.65772825
 20
733.89832073
  0
VERTEX
  8
10
 10
824.54721924
 20
731.35949811
  0
VERTEX
  8
10
 10
826.53830032
 20
728.91003174
  0
VERTEX
  8
10
 10
828.62726434
 20
726.55600440
  0
VERTEX
  8
10
 10
830.81040415
 20
724.30349891
  0
VERTEX
  8
10
 10
833.08401258
 20
722.15859795
  0
VERTEX
  8
10
 10
835.44438256
 20
720.12738436
  0
VERTEX
  8
10
 10
837.88780690
 20
718.21594082
  0
VERTEX
  8
10
 10
840.41057851
 20
716.43035018
  0
VERTEX
  8
10
 10
843.00899020
 20
714.77669516
  0
VERTEX
  8
10
 10
845.67933487
 20
713.26105856
  0
VERTEX
  8
10
 10
848.41790537
 20
711.88952311
  0
VERTEX
  8
10
 10
851.22099456
 20
710.66817160
  0
VERTEX
  8
10
 10
854.08489534
 20
709.60308676
  0
VERTEX
  8
10
 10
857.00590049
 20
708.70035143
  0
VERTEX
  8
10
 10
859.98030297
 20
707.96604830
  0
VERTEX
  8
10
 10
863.00439558
 20
707.40626016
  0
VERTEX
  8
10
 10
866.07447120
 20
707.02706979
  0
VERTEX
  8
10
 10
869.18682269
 20
706.83455994
  0
VERTEX
  8
10
 10
871.39998564
 20
706.83119910
  0
VERTEX
  8
10
 10
872.77355764
 20
706.86764137
  0
VERTEX
  8
10
 10
874.14712965
 20
706.94052592
  0
VERTEX
  8
10
 10
875.52070165
 20
707.01341047
  0
VERTEX
  8
10
 10
876.89427366
 20
707.12273729
  0
VERTEX
  8
10
 10
878.62549528
 20
707.29175671
  0
VERTEX
  8
10
 10
881.75465925
 20
707.74647450
  0
VERTEX
  8
10
 10
884.86443638
 20
708.34540471
  0
VERTEX
  8
10
 10
887.94874287
 20
709.08484156
  0
VERTEX
  8
10
 10
891.00149474
 20
709.96107922
  0
VERTEX
  8
10
 10
894.01660825
 20
710.97041187
  0
VERTEX
  8
10
 10
896.98799943
 20
712.10913368
  0
VERTEX
  8
10
 10
899.90958445
 20
713.37353891
  0
VERTEX
  8
10
 10
902.77527944
 20
714.75992165
  0
VERTEX
  8
10
 10
905.57900055
 20
716.26457616
  0
VERTEX
  8
10
 10
908.31466387
 20
717.88379657
  0
VERTEX
  8
10
 10
910.97618556
 20
719.61387710
  0
VERTEX
  8
10
 10
913.55748177
 20
721.45111192
  0
VERTEX
  8
10
 10
916.05246858
 20
723.39179525
  0
VERTEX
  8
10
 10
918.45506216
 20
725.43222123
  0
VERTEX
  8
10
 10
920.75917861
 20
727.56868410
  0
VERTEX
  8
10
 10
922.95873408
 20
729.79747800
  0
VERTEX
  8
10
 10
925.04764469
 20
732.11489711
  0
VERTEX
  8
10
 10
927.01982663
 20
734.51723569
  0
VERTEX
  8
10
 10
928.86919595
 20
737.00078782
  0
VERTEX
  8
10
 10
930.58966880
 20
739.56184776
  0
VERTEX
  8
10
 10
932.17516136
 20
742.19670970
  0
VERTEX
  8
10
 10
933.61958971
 20
744.90166779
  0
VERTEX
  8
10
 10
934.91686997
 20
747.67301623
  0
VERTEX
  8
10
 10
936.06091835
 20
750.50704921
  0
VERTEX
  8
10
 10
937.04565091
 20
753.40006089
  0
VERTEX
  8
10
 10
937.86498379
 20
756.34834551
  0
VERTEX
  8
10
 10
938.51283313
 20
759.34819721
  0
VERTEX
  8
10
 10
938.98311510
 20
762.39591020
  0
VERTEX
  8
10
 10
939.26974577
 20
765.48777866
  0
VERTEX
  8
10
 10
939.36664128
 20
768.62009676
  0
VERTEX
  8
10
 10
939.28866059
 20
771.77094145
  0
VERTEX
  8
10
 10
939.05718990
 20
774.91761939
  0
VERTEX
  8
10
 10
938.67593638
 20
778.05404641
  0
VERTEX
  8
10
 10
938.14860711
 20
781.17413833
  0
VERTEX
  8
10
 10
937.47890929
 20
784.27181092
  0
VERTEX
  8
10
 10
936.67055005
 20
787.34097999
  0
VERTEX
  8
10
 10
935.72723651
 20
790.37556133
  0
VERTEX
  8
10
 10
934.65267578
 20
793.36947074
  0
VERTEX
  8
10
 10
933.45057505
 20
796.31662405
  0
VERTEX
  8
10
 10
932.12464141
 20
799.21093703
  0
VERTEX
  8
10
 10
930.67858206
 20
802.04632549
  0
VERTEX
  8
10
 10
929.11610405
 20
804.81670521
  0
VERTEX
  8
10
 10
927.44091461
 20
807.51599203
  0
VERTEX
  8
10
 10
925.65672080
 20
810.13810172
  0
VERTEX
  8
10
 10
923.76722977
 20
812.67695009
  0
VERTEX
  8
10
 10
921.77614873
 20
815.12645295
  0
VERTEX
  8
10
 10
919.68718471
 20
817.48052607
  0
VERTEX
  8
10
 10
917.50404490
 20
819.73308529
  0
VERTEX
  8
10
 10
915.23043647
 20
821.87804640
  0
VERTEX
  8
10
 10
912.87006649
 20
823.90932519
  0
VERTEX
  8
10
 10
910.42664215
 20
825.82083744
  0
VERTEX
  8
10
 10
907.90387054
 20
827.60649899
  0
VERTEX
  8
10
 10
905.30545885
 20
829.26022562
  0
VERTEX
  8
10
 10
902.63511418
 20
830.77593313
  0
VERTEX
  8
10
 10
899.89654368
 20
832.14753734
  0
VERTEX
  8
10
 10
897.09345449
 20
833.36895405
  0
VERTEX
  8
10
 10
894.22955371
 20
834.43409899
  0
VERTEX
  8
10
 10
891.30854852
 20
835.33688806
  0
VERTEX
  8
10
 10
888.33414607
 20
836.07123701
  0
VERTEX
  8
10
 10
885.31005347
 20
836.63106163
  0
VERTEX
  8
10
 10
882.23997785
 20
837.01027775
  0
VERTEX
  8
10
 10
879.12762635
 20
837.20280116
  0
VERTEX
  8
10
 10
876.89427366
 20
837.20619299
  0
VERTEX
  8
10
 10
875.52070165
 20
837.16949814
  0
VERTEX
  8
10
 10
874.14712965
 20
837.11445587
  0
VERTEX
  8
10
 10
871.23125571
 20
836.90249450
  0
VERTEX
  8
10
 10
869.68895377
 20
836.74557541
  0
VERTEX
  8
10
 10
866.55978979
 20
836.29083037
  0
VERTEX
  8
10
 10
863.45001267
 20
835.69186602
  0
VERTEX
  8
10
 10
860.36570618
 20
834.95238925
  0
VERTEX
  8
10
 10
857.31295427
 20
834.07610697
  0
VERTEX
  8
10
 10
854.29784079
 20
833.06672612
  0
VERTEX
  8
10
 10
851.32644962
 20
831.92795361
  0
VERTEX
  8
10
 10
848.40486460
 20
830.66349638
  0
VERTEX
  8
10
 10
845.53916957
 20
829.27706129
  0
SEQEND
  8
10
  0
POLYLINE
  8
10
 62
     4
 66
     1
  0
VERTEX
  8
10
 10
902.33314983
 20
766.68077924
  0
VERTEX
  8
10
 10
902.57356680
 20
764.92815989
  0
VERTEX
  8
10
 10
902.78847646
 20
763.26031027
  0
VERTEX
  8
10
 10
902.97713731
 20
761.68985576
  0
VERTEX
  8
10
 10
903.13880780
 20
760.22942178
  0
VERTEX
  8
10
 10
903.27274649
 20
758.89163367
  0
VERTEX
  8
10
 10
903.37821176
 20
757.68911683
  0
VERTEX
  8
10
 10
903.45446219
 20
756.63449671
  0
VERTEX
  8
10
 10
903.50075625
 20
755.74039869
  0
VERTEX
  8
10
 10
903.51635238
 20
755.01944815
  0
VERTEX
  8
10
 10
903.40618212
 20
754.39307345
  0
VERTEX
  8
10
 10
903.08408817
 20
753.77478045
  0
VERTEX
  8
10
 10
902.56269569
 20
753.16531066
  0
VERTEX
  8
10
 10
901.85462984
 20
752.56540558
  0
VERTEX
  8
10
 10
900.97251581
 20
751.97580672
  0
VERTEX
  8
10
 10
899.92897877
 20
751.39725563
  0
VERTEX
  8
10
 10
898.73664388
 20
750.83049377
  0
VERTEX
  8
10
 10
897.40813635
 20
750.27626267
  0
VERTEX
  8
10
 10
895.95608134
 20
749.73530390
  0
VERTEX
  8
10
 10
894.39310401
 20
749.20835893
  0
VERTEX
  8
10
 10
892.73182955
 20
748.69616928
  0
VERTEX
  8
10
 10
890.98488309
 20
748.19947645
  0
VERTEX
  8
10
 10
889.16488989
 20
747.71902199
  0
VERTEX
  8
10
 10
887.28447506
 20
747.25554740
  0
VERTEX
  8
10
 10
885.35626380
 20
746.80979421
  0
VERTEX
  8
10
 10
883.39288126
 20
746.38250390
  0
VERTEX
  8
10
 10
881.40695262
 20
745.97441800
  0
VERTEX
  8
10
 10
879.41110308
 20
745.58627806
  0
VERTEX
  8
10
 10
877.41795784
 20
745.21882553
  0
VERTEX
  8
10
 10
876.89427366
 20
745.12720575
  0
VERTEX
  8
10
 10
875.52070165
 20
744.87675730
  0
VERTEX
  8
10
 10
872.77355764
 20
744.42363713
  0
VERTEX
  8
10
 10
871.39998564
 20
744.22096540
  0
VERTEX
  8
10
 10
869.72492282
 20
743.97072028
  0
VERTEX
  8
10
 10
867.93467647
 20
743.71782773
  0
VERTEX
  8
10
 10
866.22288540
 20
743.49007176
  0
VERTEX
  8
10
 10
864.60217486
 20
743.28819382
  0
VERTEX
  8
10
 10
863.08516993
 20
743.11293545
  0
VERTEX
  8
10
 10
861.68449585
 20
742.96503815
  0
VERTEX
  8
10
 10
860.41277780
 20
742.84524348
  0
VERTEX
  8
10
 10
859.28264092
 20
742.75429294
  0
VERTEX
  8
10
 10
858.30671035
 20
742.69292800
  0
VERTEX
  8
10
 10
857.49761135
 20
742.66189026
  0
VERTEX
  8
10
 10
856.84541787
 20
742.68578224
  0
VERTEX
  8
10
 10
856.22299133
 20
742.90349941
  0
VERTEX
  8
10
 10
855.60901724
 20
743.32683419
  0
VERTEX
  8
10
 10
855.00423712
 20
743.94316104
  0
VERTEX
  8
10
 10
854.40939246
 20
744.73985423
  0
VERTEX
  8
10
 10
853.82522477
 20
745.70428822
  0
VERTEX
  8
10
 10
853.25247561
 20
746.82383739
  0
VERTEX
  8
10
 10
852.69188645
 20
748.08587608
  0
VERTEX
  8
10
 10
852.14419882
 20
749.47777871
  0
VERTEX
  8
10
 10
851.61015425
 20
750.98691967
  0
VERTEX
  8
10
 10
851.09049427
 20
752.60067334
  0
VERTEX
  8
10
 10
850.58596032
 20
754.30641406
  0
VERTEX
  8
10
 10
850.09729402
 20
756.09151626
  0
VERTEX
  8
10
 10
849.62523677
 20
757.94335435
  0
VERTEX
  8
10
 10
849.17053019
 20
759.84930265
  0
VERTEX
  8
10
 10
848.73391575
 20
761.79673556
  0
VERTEX
  8
10
 10
848.31613496
 20
763.77302752
  0
VERTEX
  8
10
 10
847.91792937
 20
765.76555282
  0
VERTEX
  8
10
 10
847.54004045
 20
767.76168594
  0
VERTEX
  8
10
 10
847.18320970
 20
769.74880120
  0
VERTEX
  8
10
 10
846.84817871
 20
771.71427300
  0
VERTEX
  8
10
 10
846.53568895
 20
773.64547572
  0
VERTEX
  8
10
 10
846.24648194
 20
775.52978377
  0
VERTEX
  8
10
 10
845.98129921
 20
777.35457150
  0
VERTEX
  8
10
 10
845.74088225
 20
779.10721334
  0
VERTEX
  8
10
 10
845.52597258
 20
780.77508362
  0
VERTEX
  8
10
 10
845.33731174
 20
782.34555676
  0
VERTEX
  8
10
 10
845.17564125
 20
783.80600713
  0
VERTEX
  8
10
 10
845.04170256
 20
785.14380912
  0
VERTEX
  8
10
 10
844.93623725
 20
786.34633712
  0
VERTEX
  8
10
 10
844.85998682
 20
787.40096549
  0
VERTEX
  8
10
 10
844.81369279
 20
788.29506867
  0
VERTEX
  8
10
 10
844.79809667
 20
789.01602097
  0
VERTEX
  8
10
 10
844.90826693
 20
789.64239387
  0
VERTEX
  8
10
 10
845.23036088
 20
790.26068178
  0
VERTEX
  8
10
 10
845.75175335
 20
790.87014330
  0
VERTEX
  8
10
 10
846.45981921
 20
791.47003721
  0
VERTEX
  8
10
 10
847.34193323
 20
792.05962218
  0
VERTEX
  8
10
 10
848.38547028
 20
792.63815690
  0
VERTEX
  8
10
 10
849.57780517
 20
793.20490015
  0
VERTEX
  8
10
 10
850.90631269
 20
793.75911055
  0
VERTEX
  8
10
 10
852.35836771
 20
794.30004684
  0
VERTEX
  8
10
 10
853.92134504
 20
794.82696774
  0
VERTEX
  8
10
 10
855.58261950
 20
795.33913193
  0
VERTEX
  8
10
 10
857.32956595
 20
795.83579810
  0
VERTEX
  8
10
 10
859.14955915
 20
796.31622501
  0
VERTEX
  8
10
 10
861.02997399
 20
796.77967132
  0
VERTEX
  8
10
 10
862.95818525
 20
797.22539577
  0
VERTEX
  8
10
 10
864.92156779
 20
797.65265702
  0
VERTEX
  8
10
 10
866.90749639
 20
798.06071380
  0
VERTEX
  8
10
 10
868.90334597
 20
798.44882481
  0
VERTEX
  8
10
 10
870.89649121
 20
798.81624877
  0
VERTEX
  8
10
 10
872.39593682
 20
799.09381515
  0
VERTEX
  8
10
 10
873.09504040
 20
799.22121983
  0
VERTEX
  8
10
 10
874.64510524
 20
799.47913483
  0
VERTEX
  8
10
 10
875.39482804
 20
799.59119546
  0
VERTEX
  8
10
 10
876.89427366
 20
799.81100938
  0
VERTEX
  8
10
 10
878.58952622
 20
800.06424809
  0
VERTEX
  8
10
 10
880.37977258
 20
800.31711731
  0
VERTEX
  8
10
 10
882.09156365
 20
800.54485170
  0
VERTEX
  8
10
 10
883.71227418
 20
800.74670997
  0
VERTEX
  8
10
 10
885.22927912
 20
800.92195080
  0
VERTEX
  8
10
 10
886.62995316
 20
801.06983294
  0
VERTEX
  8
10
 10
887.90167125
 20
801.18961504
  0
VERTEX
  8
10
 10
889.03180813
 20
801.28055584
  0
VERTEX
  8
10
 10
890.00773866
 20
801.34191407
  0
VERTEX
  8
10
 10
890.81683769
 20
801.37294837
  0
VERTEX
  8
10
 10
891.46903118
 20
801.34905635
  0
VERTEX
  8
10
 10
892.09145772
 20
801.13134266
  0
VERTEX
  8
10
 10
892.70543180
 20
800.70801458
  0
VERTEX
  8
10
 10
893.31021193
 20
800.09169751
  0
VERTEX
  8
10
 10
893.90505659
 20
799.29501685
  0
VERTEX
  8
10
 10
894.48922427
 20
798.33059803
  0
VERTEX
  8
10
 10
895.06197343
 20
797.21106641
  0
VERTEX
  8
10
 10
895.62256260
 20
795.94904735
  0
VERTEX
  8
10
 10
896.17025022
 20
794.55716633
  0
VERTEX
  8
10
 10
896.70429480
 20
793.04804870
  0
VERTEX
  8
10
 10
897.22395478
 20
791.43431987
  0
VERTEX
  8
10
 10
897.72848873
 20
789.72860518
  0
VERTEX
  8
10
 10
898.21715503
 20
787.94353009
  0
VERTEX
  8
10
 10
898.68921224
 20
786.09171998
  0
VERTEX
  8
10
 10
899.14391885
 20
784.18580022
  0
VERTEX
  8
10
 10
899.58053329
 20
782.23839624
  0
VERTEX
  8
10
 10
899.99831408
 20
780.26213341
  0
VERTEX
  8
10
 10
900.39651968
 20
778.26963715
  0
VERTEX
  8
10
 10
900.77440860
 20
776.27353279
  0
VERTEX
  8
10
 10
901.13123935
 20
774.28644584
  0
VERTEX
  8
10
 10
901.46627034
 20
772.32100158
  0
VERTEX
  8
10
 10
901.77876009
 20
770.38982546
  0
VERTEX
  8
10
 10
902.06796711
 20
768.50554290
  0
VERTEX
  8
10
 10
902.33314983
 20
766.68077924
  0
SEQEND
  8
10
  0
POLYLINE
  8
10
 62
     4
 66
     1
  0
VERTEX
  8
10
 10
856.43608011
 20
812.65808640
  0
VERTEX
  8
10
 10
858.77888873
 20
813.62966150
  0
VERTEX
  8
10
 10
861.13544099
 20
814.53249807
  0
VERTEX
  8
10
 10
863.49638259
 20
815.36437181
  0
VERTEX
  8
10
 10
865.85235919
 20
816.12305833
  0
VERTEX
  8
10
 10
868.19401650
 20
816.80633341
  0
VERTEX
  8
10
 10
870.51200024
 20
817.41197263
  0
VERTEX
  8
10
 10
871.39998564
 20
817.61630224
  0
VERTEX
  8
10
 10
872.85758097
 20
817.93959921
  0
VERTEX
  8
10
 10
874.31517629
 20
818.24522566
  0
VERTEX
  8
10
 10
875.77277162
 20
818.50186415
  0
VERTEX
  8
10
 10
877.23036695
 20
818.74083212
  0
VERTEX
  8
10
 10
879.36011338
 20
819.01368480
  0
VERTEX
  8
10
 10
881.41941469
 20
819.19778000
  0
VERTEX
  8
10
 10
883.39891663
 20
819.29089342
  0
VERTEX
  8
10
 10
885.29838792
 20
819.27655875
  0
VERTEX
  8
10
 10
887.16588635
 20
819.07144196
  0
VERTEX
  8
10
 10
889.00801380
 20
818.67017334
  0
VERTEX
  8
10
 10
890.82254615
 20
818.08210760
  0
VERTEX
  8
10
 10
892.60725931
 20
817.31659955
  0
VERTEX
  8
10
 10
894.35992913
 20
816.38300387
  0
VERTEX
  8
10
 10
896.07833155
 20
815.29067531
  0
VERTEX
  8
10
 10
897.76024245
 20
814.04896867
  0
VERTEX
  8
10
 10
899.40343770
 20
812.66723860
  0
VERTEX
  8
10
 10
901.00569326
 20
811.15483993
  0
VERTEX
  8
10
 10
902.56478495
 20
809.52112735
  0
VERTEX
  8
10
 10
904.07848870
 20
807.77545560
  0
VERTEX
  8
10
 10
905.54458037
 20
805.92717946
  0
VERTEX
  8
10
 10
906.96083592
 20
803.98565364
  0
VERTEX
  8
10
 10
908.32503119
 20
801.96023289
  0
VERTEX
  8
10
 10
909.63494209
 20
799.86027198
  0
VERTEX
  8
10
 10
910.88834453
 20
797.69512560
  0
VERTEX
  8
10
 10
912.08301435
 20
795.47414853
  0
VERTEX
  8
10
 10
913.21672753
 20
793.20669550
  0
VERTEX
  8
10
 10
914.28725988
 20
790.90212126
  0
VERTEX
  8
10
 10
915.29238735
 20
788.56978054
  0
VERTEX
  8
10
 10
916.22988584
 20
786.21902809
  0
VERTEX
  8
10
 10
917.09753121
 20
783.85921868
  0
VERTEX
  8
10
 10
917.89309935
 20
781.49970699
  0
VERTEX
  8
10
 10
918.61436615
 20
779.14984780
  0
VERTEX
  8
10
 10
919.25910755
 20
776.81899585
  0
VERTEX
  8
10
 10
919.82509943
 20
774.51650585
  0
VERTEX
  8
10
 10
920.31011763
 20
772.25173261
  0
VERTEX
  8
10
 10
920.71193814
 20
770.03403083
  0
VERTEX
  8
10
 10
921.02833675
 20
767.87275524
  0
VERTEX
  8
10
 10
921.25708946
 20
765.77726060
  0
VERTEX
  8
10
 10
921.39597205
 20
763.75690167
  0
VERTEX
  8
10
 10
921.44276053
 20
761.82103317
  0
VERTEX
  8
10
 10
921.33922064
 20
759.94168328
  0
VERTEX
  8
10
 10
921.03483811
 20
758.08659231
  0
VERTEX
  8
10
 10
920.53896854
 20
756.25798440
  0
VERTEX
  8
10
 10
919.86096757
 20
754.45808363
  0
VERTEX
  8
10
 10
919.01019081
 20
752.68911412
  0
VERTEX
  8
10
 10
917.99599389
 20
750.95329998
  0
VERTEX
  8
10
 10
916.82773244
 20
749.25286530
  0
VERTEX
  8
10
 10
915.51476206
 20
747.59003424
  0
VERTEX
  8
10
 10
914.06643840
 20
745.96703082
  0
VERTEX
  8
10
 10
912.49211709
 20
744.38607919
  0
VERTEX
  8
10
 10
910.80115373
 20
742.84940346
  0
VERTEX
  8
10
 10
909.00290392
 20
741.35922772
  0
VERTEX
  8
10
 10
907.10672337
 20
739.91777609
  0
VERTEX
  8
10
 10
905.12196765
 20
738.52727267
  0
VERTEX
  8
10
 10
903.05799239
 20
737.18994158
  0
VERTEX
  8
10
 10
900.92415319
 20
735.90800690
  0
VERTEX
  8
10
 10
898.72980569
 20
734.68369276
  0
VERTEX
  8
10
 10
896.48430556
 20
733.51922325
  0
VERTEX
  8
10
 10
894.19700837
 20
732.41682245
  0
VERTEX
  8
10
 10
891.87726975
 20
731.37871453
  0
VERTEX
  8
10
 10
889.53444534
 20
730.40712354
  0
VERTEX
  8
10
 10
887.17789078
 20
729.50427360
  0
VERTEX
  8
10
 10
884.81696167
 20
728.67238883
  0
VERTEX
  8
10
 10
882.46101360
 20
727.91369337
  0
VERTEX
  8
10
 10
880.11940226
 20
727.23041122
  0
VERTEX
  8
10
 10
877.80148328
 20
726.62476659
  0
VERTEX
  8
10
 10
875.09545411
 20
726.00957521
  0
VERTEX
  8
10
 10
873.45600303
 20
725.68221505
  0
VERTEX
  8
10
 10
871.08343645
 20
725.29589860
  0
VERTEX
  8
10
 10
868.95384301
 20
725.02304490
  0
VERTEX
  8
10
 10
866.89472001
 20
724.83894925
  0
VERTEX
  8
10
 10
864.91542309
 20
724.74583569
  0
VERTEX
  8
10
 10
863.01606471
 20
724.76017036
  0
VERTEX
  8
10
 10
861.14856629
 20
724.96528729
  0
VERTEX
  8
10
 10
859.30643884
 20
725.36655635
  0
VERTEX
  8
10
 10
857.49190649
 20
725.95462308
  0
VERTEX
  8
10
 10
855.70719332
 20
726.72013292
  0
VERTEX
  8
10
 10
853.95452350
 20
727.65373135
  0
VERTEX
  8
10
 10
852.23612108
 20
728.74606390
  0
VERTEX
  8
10
 10
850.55421018
 20
729.98777596
  0
VERTEX
  8
10
 10
848.91101493
 20
731.36951310
  0
VERTEX
  8
10
 10
847.30875938
 20
732.88192071
  0
VERTEX
  8
10
 10
845.74966769
 20
734.51564432
  0
VERTEX
  8
10
 10
844.23596394
 20
736.26132943
  0
VERTEX
  8
10
 10
842.76987226
 20
738.10962144
  0
VERTEX
  8
10
 10
841.35361671
 20
740.05116591
  0
VERTEX
  8
10
 10
839.98942144
 20
742.07660830
  0
VERTEX
  8
10
 10
838.67951055
 20
744.17659404
  0
VERTEX
  8
10
 10
837.42610811
 20
746.34176863
  0
VERTEX
  8
10
 10
836.23143829
 20
748.56277760
  0
VERTEX
  8
10
 10
835.09772511
 20
750.83026635
  0
VERTEX
  8
10
 10
834.02719275
 20
753.13488044
  0
VERTEX
  8
10
 10
833.02206529
 20
755.46726526
  0
VERTEX
  8
10
 10
832.08456679
 20
757.81806634
  0
VERTEX
  8
10
 10
831.21692143
 20
760.17792916
  0
VERTEX
  8
10
 10
830.42135329
 20
762.53749921
  0
VERTEX
  8
10
 10
829.70008649
 20
764.88742194
  0
VERTEX
  8
10
 10
829.05534508
 20
767.21834283
  0
VERTEX
  8
10
 10
828.48935320
 20
769.52090733
  0
VERTEX
  8
10
 10
828.00433500
 20
771.78576101
  0
VERTEX
  8
10
 10
827.60251450
 20
774.00354923
  0
VERTEX
  8
10
 10
827.28611588
 20
776.16491760
  0
VERTEX
  8
10
 10
827.05736318
 20
778.26051147
  0
VERTEX
  8
10
 10
826.91848058
 20
780.28097640
  0
VERTEX
  8
10
 10
826.87169211
 20
782.21695783
  0
VERTEX
  8
10
 10
826.97522504
 20
784.09619480
  0
VERTEX
  8
10
 10
827.27958761
 20
785.95117980
  0
VERTEX
  8
10
 10
827.77542553
 20
787.77968844
  0
VERTEX
  8
10
 10
828.45338448
 20
789.57949643
  0
VERTEX
  8
10
 10
829.30411018
 20
791.34837949
  0
VERTEX
  8
10
 10
830.31824832
 20
793.08411321
  0
VERTEX
  8
10
 10
831.48644461
 20
794.78447334
  0
VERTEX
  8
10
 10
832.79934473
 20
796.44723551
  0
VERTEX
  8
10
 10
834.24759440
 20
798.07017537
  0
VERTEX
  8
10
 10
835.82183930
 20
799.65106865
  0
VERTEX
  8
10
 10
837.51272515
 20
801.18769098
  0
VERTEX
  8
10
 10
839.31089760
 20
802.67781808
  0
VERTEX
  8
10
 10
841.20700241
 20
804.11922560
  0
VERTEX
  8
10
 10
843.19168524
 20
805.50968917
  0
VERTEX
  8
10
 10
845.25559182
 20
806.84698455
  0
VERTEX
  8
10
 10
847.38936780
 20
808.12888737
  0
VERTEX
  8
10
 10
849.58365893
 20
809.35317326
  0
VERTEX
  8
10
 10
851.82911089
 20
810.51761794
  0
VERTEX
  8
10
 10
854.11636940
 20
811.61999709
  0
VERTEX
  8
10
 10
856.43608011
 20
812.65808640
  0
SEQEND
  8
10
  0
LINE
  8
1
 62
     4
 10
891.11601766
 20
754.70422177
 11
891.39908138
 21
754.98728550
  0
LINE
  8
1
 62
     4
 10
842.58676509
 20
706.92787603
 11
847.83856059
 21
712.17967153
  0
LINE
  8
1
 62
     4
 10
855.51247989
 20
719.85359082
 11
860.71797229
 21
725.05908322
  0
LINE
  8
1
 62
     4
 10
871.82298724
 20
736.16409817
 11
881.69185033
 21
746.03296127
  0
LINE
  8
1
 62
     4
 10
890.36311084
 20
754.70422177
 11
891.39908138
 21
755.74019232
  0
LINE
  8
1
 62
     4
 10
902.33393615
 20
766.67504708
 11
909.17045990
 21
773.51157083
  0
LINE
  8
1
 62
     4
 10
917.70789091
 20
782.04900184
 11
924.12599208
 21
788.46710301
  0
LINE
  8
1
 62
     4
 10
932.98713430
 20
797.32824524
 11
939.24645163
 21
803.58756257
  0
LINE
  8
1
 62
     4
 10
841.17121291
 20
707.63364419
 11
846.42512128
 21
712.88755256
  0
LINE
  8
1
 62
     4
 10
854.02264641
 20
720.48507769
 11
859.00259649
 21
725.46502777
  0
LINE
  8
1
 62
     4
 10
869.21144226
 20
735.67387354
 11
879.05891873
 21
745.52135001
  0
LINE
  8
1
 62
     4
 10
888.24179049
 20
754.70422177
 11
891.39908138
 21
757.86151266
  0
LINE
  8
1
 62
     4
 10
902.06465981
 20
768.52709108
 11
908.74934360
 21
775.21177487
  0
LINE
  8
1
 62
     4
 10
917.17299006
 20
783.63542133
 11
923.51580067
 21
789.97823195
  0
LINE
  8
1
 62
     4
 10
932.32064956
 20
798.78308084
 11
938.54068347
 21
805.00311475
  0
LINE
  8
1
 62
     4
 10
839.78117630
 20
708.36492792
 11
845.04011559
 21
713.62386721
  0
LINE
  8
1
 62
     4
 10
852.58035773
 20
721.16410936
 11
857.40720299
 21
725.99095461
  0
LINE
  8
1
 62
     4
 10
866.70664532
 20
735.29039694
 11
876.46522390
 21
745.04897552
  0
LINE
  8
1
 62
     4
 10
886.12047015
 20
754.70422177
 11
891.39908138
 21
759.98283301
  0
LINE
  8
1
 62
     4
 10
901.78239449
 20
770.36614611
 11
908.30768724
 21
776.89143886
  0
LINE
  8
1
 62
     4
 10
916.60770079
 20
785.19145241
 11
922.89035378
 21
791.47410540
  0
LINE
  8
1
 62
     4
 10
931.61887552
 20
800.20262714
 11
937.80939974
 21
806.39315136
  0
LINE
  8
1
 62
     4
 10
838.41614402
 20
709.12121599
 11
843.68687101
 21
714.39194297
  0
LINE
  8
1
 62
     4
 10
851.20146663
 20
721.90653860
 11
855.92264720
 21
726.62771916
  0
LINE
  8
1
 62
     4
 10
864.30134459
 20
735.00641656
 11
873.90522494
 21
744.61029690
  0
LINE
  8
1
 62
     4
 10
883.99914981
 20
754.70422177
 11
891.39908138
 21
762.10415335
  0
LINE
  8
1
 62
     4
 10
901.48711435
 20
772.19218631
 11
907.84674713
 21
778.55181909
  0
LINE
  8
1
 62
     4
 10
916.02577033
 20
786.73084229
 11
922.23671767
 21
792.94178964
  0
LINE
  8
1
 62
     4
 10
930.90239940
 20
801.60747137
 11
937.05311167
 21
807.75818364
  0
LINE
  8
1
 62
     4
 10
837.07565575
 20
709.90204806
 11
842.36203291
 21
715.18842521
  0
LINE
  8
1
 62
     4
 10
849.85075692
 20
722.67714923
 11
854.52399659
 21
727.35038889
  0
LINE
  8
1
 62
     4
 10
862.02946446
 20
734.85585677
 11
871.39363623
 21
744.22002854
  0
LINE
  8
1
 62
     4
 10
881.87782946
 20
754.70422177
 11
891.39908138
 21
764.22547369
  0
LINE
  8
1
 62
     4
 10
901.17912638
 20
774.00551869
 11
907.36747282
 21
780.19386513
  0
LINE
  8
1
 62
     4
 10
915.42097019
 20
788.24736250
 11
921.55632815
 21
794.38272046
  0
LINE
  8
1
 62
     4
 10
930.15257661
 20
802.97896891
 11
936.27227960
 21
809.09867191
  0
LINE
  8
1
 62
     4
 10
835.75929819
 20
710.70701085
 11
841.06570715
 21
716.01341980
  0
LINE
  8
1
 62
     4
 10
848.54799966
 20
723.49571232
 11
853.19122362
 21
728.13893627
  0
LINE
  8
1
 62
     4
 10
859.97154266
 20
734.91925531
 11
868.90754356
 21
743.85525621
  0
LINE
  8
1
 62
     4
 10
879.75650912
 20
754.70422177
 11
891.39908138
 21
766.34679404
  0
LINE
  8
1
 62
     4
 10
900.85835378
 20
775.80606643
 11
906.86324698
 21
781.81095963
  0
LINE
  8
1
 62
     4
 10
914.78934616
 20
789.73705881
 11
920.86046652
 21
795.80817917
  0
LINE
  8
1
 62
     4
 10
929.38760425
 20
804.33531690
 11
935.46731682
 21
810.41502947
  0
LINE
  8
1
 62
     4
 10
834.46670177
 20
711.53573476
 11
839.79618108
 21
716.86521408
  0
LINE
  8
1
 62
     4
 10
847.28492848
 20
724.35396147
 11
851.91448595
 21
728.98351895
  0
LINE
  8
1
 62
     4
 10
858.28044532
 20
735.34947832
 11
866.45144951
 21
743.52048251
  0
LINE
  8
1
 62
     4
 10
877.63518878
 20
754.70422177
 11
891.39908138
 21
768.46811438
  0
LINE
  8
1
 62
     4
 10
900.52451272
 20
777.59354571
 11
906.34116089
 21
783.41019389
  0
LINE
  8
1
 62
     4
 10
914.14320357
 20
791.21223656
 11
920.12773463
 21
797.19676763
  0
LINE
  8
1
 62
     4
 10
928.59206816
 20
805.66110116
 11
934.63859290
 21
811.70762589
  0
LINE
  8
1
 62
     4
 10
833.19753775
 20
712.38789109
 11
838.55403699
 21
717.74439033
  0
LINE
  8
1
 62
     4
 10
846.04344255
 20
725.23379589
 11
850.69412619
 21
729.88447953
  0
LINE
  8
1
 62
     4
 10
856.82848256
 20
736.01883590
 11
864.03196454
 21
743.22231787
  0
LINE
  8
1
 62
     4
 10
875.51386843
 20
754.70422177
 11
891.39908138
 21
770.58943472
  0
LINE
  8
1
 62
     4
 10
900.17711520
 20
779.36746854
 11
905.80140257
 21
784.99175591
  0
LINE
  8
1
 62
     4
 10
913.47035310
 20
792.66070644
 11
919.38528619
 21
798.57563953
  0
LINE
  8
1
 62
     4
 10
927.77971641
 20
806.97006975
 11
933.78643658
 21
812.97678991
  0
LINE
  8
1
 62
     4
 10
831.95151577
 20
713.26318945
 11
837.33596353
 21
718.64763721
  0
LINE
  8
1
 62
     4
 10
844.85754321
 20
726.16921689
 11
849.53398970
 21
730.84566338
  0
LINE
  8
1
 62
     4
 10
855.54972797
 20
736.86140166
 11
861.65012695
 21
742.96180063
  0
LINE
  8
1
 62
     4
 10
873.39254809
 20
754.70422177
 11
891.39908138
 21
772.71075507
  0
LINE
  8
1
 62
     4
 10
899.81545467
 20
781.12712835
 11
905.24405595
 21
786.55572964
  0
LINE
  8
1
 62
     4
 10
912.77616241
 20
794.08783609
 11
918.60704856
 21
799.91872224
  0
LINE
  8
1
 62
     4
 10
926.94019390
 20
808.25186759
 11
932.91113821
 21
814.22281189
  0
LINE
  8
1
 62
     4
 10
830.72838173
 20
714.16137575
 11
836.14573551
 21
719.57872953
  0
LINE
  8
1
 62
     4
 10
843.68751970
 20
727.12051372
 11
848.40971148
 21
731.84270551
  0
LINE
  8
1
 62
     4
 10
854.38763073
 20
737.82062476
 11
859.32468230
 21
742.75767632
  0
LINE
  8
1
 62
     4
 10
871.27122774
 20
754.70422177
 11
891.39908138
 21
774.83207541
  0
LINE
  8
1
 62
     4
 10
899.43857406
 20
782.87156809
 11
904.66212764
 21
788.09512167
  0
LINE
  8
1
 62
     4
 10
912.06837329
 20
795.50136731
 11
917.81465177
 21
801.24764579
  0
LINE
  8
1
 62
     4
 10
926.08123205
 20
809.51422608
 11
932.01295191
 21
815.44594594
  0
LINE
  8
1
 62
     4
 10
829.52791592
 20
715.08223029
 11
834.97607312
 21
720.53038749
  0
LINE
  8
1
 62
     4
 10
842.55604155
 20
728.11035591
 11
847.31845470
 21
732.87276907
  0
LINE
  8
1
 62
     4
 10
853.31312954
 20
738.86744391
 11
857.12135924
 21
742.67567361
  0
LINE
  8
1
 62
     4
 10
869.14990740
 20
754.70422177
 11
891.39908138
 21
776.95339575
  0
LINE
  8
1
 62
     4
 10
899.04521341
 20
784.59952778
 11
904.05919150
 21
789.61350587
  0
LINE
  8
1
 62
     4
 10
911.32641211
 20
796.88072648
 11
916.99554669
 21
802.54986106
  0
LINE
  8
1
 62
     4
 10
925.19891982
 20
810.75323419
 11
931.09209737
 21
816.64641174
  0
LINE
  8
1
 62
     4
 10
828.34993158
 20
716.02556629
 11
833.83591473
 21
721.51154944
  0
LINE
  8
1
 62
     4
 10
841.45180930
 20
729.12744401
 11
846.28209530
 21
733.95773001
  0
LINE
  8
1
 62
     4
 10
852.31081093
 20
739.98644564
 11
855.63398454
 21
743.30961926
  0
LINE
  8
1
 62
     4
 10
867.02858706
 20
754.70422177
 11
891.39908138
 21
779.07471610
  0
LINE
  8
1
 62
     4
 10
898.63373078
 20
786.30936549
 11
903.43683911
 21
791.11247383
  0
LINE
  8
1
 62
     4
 10
910.56978150
 20
798.24541621
 11
916.15360478
 21
803.82923950
  0
LINE
  8
1
 62
     4
 10
924.29379141
 20
811.96942613
 11
930.14876137
 21
817.82439608
  0
LINE
  8
1
 62
     4
 10
827.19427351
 20
716.99122857
 11
832.71230673
 21
722.50926178
  0
LINE
  8
1
 62
     4
 10
840.37042361
 20
730.16737867
 11
845.27086753
 21
735.06782258
  0
LINE
  8
1
 62
     4
 10
851.37313504
 20
741.17009010
 11
854.63745210
 21
744.43440716
  0
LINE
  8
1
 62
     4
 10
864.90726671
 20
754.70422177
 11
891.39908138
 21
781.19603644
  0
LINE
  8
1
 62
     4
 10
898.20198617
 20
787.99894122
 11
902.79435288
 21
792.59130794
  0
LINE
  8
1
 62
     4
 10
909.79200466
 20
799.58895972
 11
915.29339495
 21
805.09035001
  0
LINE
  8
1
 62
     4
 10
923.36940905
 20
813.16636411
 11
929.18309909
 21
818.98005415
  0
LINE
  8
1
 62
     4
 10
826.06081714
 20
717.97909254
 11
831.62075041
 21
723.53902581
  0
LINE
  8
1
 62
     4
 10
839.32659608
 20
731.24487148
 11
844.28569801
 21
736.20397341
  0
LINE
  8
1
 62
     4
 10
850.48539016
 20
742.40366556
 11
853.81195370
 21
745.73022910
  0
LINE
  8
1
 62
     4
 10
862.78594637
 20
754.70422177
 11
891.39908138
 21
783.31735678
  0
LINE
  8
1
 62
     4
 10
897.74607778
 20
789.66435318
 11
902.12336559
 21
794.04164099
  0
LINE
  8
1
 62
     4
 10
908.98459278
 20
800.90286818
 11
914.40157157
 21
806.31984697
  0
LINE
  8
1
 62
     4
 10
922.41824569
 20
814.33652109
 11
928.19523512
 21
820.11351052
  0
LINE
  8
1
 62
     4
 10
824.94946759
 20
718.98906334
 11
830.54142681
 21
724.58102256
  0
LINE
  8
1
 62
     4
 10
838.29355093
 20
732.33314667
 11
843.34498496
 21
737.38458070
  0
LINE
  8
1
 62
     4
 10
849.64030932
 20
743.67990507
 11
853.10845999
 21
747.14805573
  0
LINE
  8
1
 62
     4
 10
860.66462603
 20
754.70422177
 11
891.39908138
 21
785.43867713
  0
LINE
  8
1
 62
     4
 10
897.26293633
 20
791.30253208
 11
901.42579682
 21
795.46539256
  0
LINE
  8
1
 62
     4
 10
908.16227752
 20
802.20187327
 11
913.49968685
 21
807.53928259
  0
LINE
  8
1
 62
     4
 10
921.45206744
 20
815.49166318
 11
927.18526432
 21
821.22486007
  0
LINE
  8
1
 62
     4
 10
823.86015916
 20
720.02107525
 11
829.49735350
 21
725.65826959
  0
LINE
  8
1
 62
     4
 10
837.30522205
 20
733.46613814
 11
842.42351983
 21
738.58443592
  0
LINE
  8
1
 62
     4
 10
848.83241066
 20
744.99332675
 11
852.47532724
 21
748.63624333
  0
LINE
  8
1
 62
     4
 10
858.54330568
 20
754.70422177
 11
891.39908138
 21
787.55999747
  0
LINE
  8
1
 62
     4
 10
896.74883122
 20
792.90974730
 11
900.70295354
 21
796.86386962
  0
LINE
  8
1
 62
     4
 10
907.30852443
 20
803.46944051
 11
912.55690620
 21
808.71782229
  0
LINE
  8
1
 62
     4
 10
920.45469521
 20
816.61561130
 11
926.15325241
 21
822.31416850
  0
LINE
  8
1
 62
     4
 10
822.79285480
 20
721.07509123
 11
828.46106073
 21
726.74329716
  0
LINE
  8
1
 62
     4
 10
836.32702978
 20
734.60926621
 11
841.52878766
 21
739.81102409
  0
LINE
  8
1
 62
     4
 10
848.05748384
 20
746.33972027
 11
851.89624049
 21
750.17847692
  0
LINE
  8
1
 62
     4
 10
856.89570003
 20
755.17793646
 11
890.92658948
 21
789.20882591
  0
LINE
  8
1
 62
     4
 10
896.19761154
 20
794.47984797
 11
899.95263863
 21
798.23487506
  0
LINE
  8
1
 62
     4
 10
906.43047792
 20
804.71271435
 11
911.60516735
 21
809.88740378
  0
LINE
  8
1
 62
     4
 10
919.44656282
 20
817.72879925
 11
925.09923643
 21
823.38147286
  0
LINE
  8
1
 62
     4
 10
821.74754594
 20
722.15110271
 11
827.46367822
 21
727.86723499
  0
LINE
  8
1
 62
     4
 10
835.38255176
 20
735.78610853
 11
840.66701605
 21
741.07057282
  0
LINE
  8
1
 62
     4
 10
847.31540952
 20
747.71896629
 11
851.36004693
 21
751.76360370
  0
LINE
  8
1
 62
     4
 10
856.89570003
 20
757.29925681
 11
888.80526913
 21
789.20882591
  0
LINE
  8
1
 62
     4
 10
895.59885715
 20
796.00241393
 11
899.16991916
 21
799.57347594
  0
LINE
  8
1
 62
     4
 10
905.53530986
 20
805.93886663
 11
910.61684922
 21
811.02040599
  0
LINE
  8
1
 62
     4
 10
918.40250215
 20
818.80605892
 11
924.02322495
 21
824.42678172
  0
LINE
  8
1
 62
     4
 10
820.72425240
 20
723.24912951
 11
826.46963187
 21
728.99450899
  0
LINE
  8
1
 62
     4
 10
834.45666765
 20
736.98154477
 11
839.82128284
 21
742.34615996
  0
LINE
  8
1
 62
     4
 10
846.60719787
 20
749.13207499
 11
850.85887165
 21
753.38374877
  0
LINE
  8
1
 62
     4
 10
856.89570003
 20
759.42057715
 11
886.68394879
 21
789.20882591
  0
LINE
  8
1
 62
     4
 10
894.93479002
 20
797.45966713
 11
898.34416209
 21
800.86903921
  0
LINE
  8
1
 62
     4
 10
904.59695592
 20
807.12183304
 11
909.61125290
 21
812.13613002
  0
LINE
  8
1
 62
     4
 10
917.35181987
 20
819.87669699
 11
922.92519815
 21
825.45007527
  0
LINE
  8
1
 62
     4
 10
819.72302253
 20
724.36921999
 11
825.51846068
 21
730.16465814
  0
LINE
  8
1
 62
     4
 10
833.55477586
 20
738.20097332
 11
839.00637819
 21
743.65257565
  0
LINE
  8
1
 62
     4
 10
845.92306959
 20
750.56926705
 11
850.38700438
 21
755.03320184
  0
LINE
  8
1
 62
     4
 10
856.89570003
 20
761.54189749
 11
884.56262844
 21
789.20882591
  0
LINE
  8
1
 62
     4
 10
894.18562354
 20
798.83182100
 11
897.47903675
 21
802.12523421
  0
LINE
  8
1
 62
     4
 10
903.63765153
 20
808.28384899
 11
908.57743992
 21
813.22363738
  0
LINE
  8
1
 62
     4
 10
916.26027842
 20
820.90647588
 11
921.80510767
 21
826.45130513
  0
LINE
  8
1
 62
     4
 10
818.74393352
 20
725.51145133
 11
824.56728950
 21
731.33480730
  0
LINE
  8
1
 62
     4
 10
832.67949088
 20
739.44700869
 11
838.21371280
 21
744.98123061
  0
LINE
  8
1
 62
     4
 10
845.26149608
 20
752.02901388
 11
849.94021303
 21
756.70773084
  0
LINE
  8
1
 62
     4
 10
856.89570003
 20
763.66321784
 11
882.44130810
 21
789.20882591
  0
LINE
  8
1
 62
     4
 10
893.31618283
 20
800.08370063
 11
896.56853505
 21
803.33605285
  0
LINE
  8
1
 62
     4
 10
902.65247797
 20
809.41999578
 11
907.51474854
 21
814.28226634
  0
LINE
  8
1
 62
     4
 10
915.16598984
 20
821.93350765
 11
920.66287633
 21
827.43039414
  0
LINE
  8
1
 62
     4
 10
817.78709193
 20
726.67593008
 11
823.66118442
 21
732.55002257
  0
LINE
  8
1
 62
     4
 10
831.81927593
 20
740.70811408
 11
837.43594238
 21
746.32478053
  0
LINE
  8
1
 62
     4
 10
844.62202476
 20
753.51086291
 11
849.51530524
 21
758.40414339
  0
LINE
  8
1
 62
     4
 10
856.89570003
 20
765.78453818
 11
880.31998776
 21
789.20882591
  0
LINE
  8
1
 62
     4
 10
892.18086158
 20
801.06969973
 11
895.60469768
 21
804.49353583
  0
LINE
  8
1
 62
     4
 10
901.62111982
 20
810.50995797
 11
906.43337684
 21
815.32221499
  0
LINE
  8
1
 62
     4
 10
914.02584838
 20
822.91468653
 11
919.49839758
 21
828.38723573
  0
LINE
  8
1
 62
     4
 10
816.85263433
 20
727.86279282
 11
822.75605077
 21
733.76620926
  0
LINE
  8
1
 62
     4
 10
830.99364893
 20
742.00380742
 11
836.69353527
 21
747.70369376
  0
LINE
  8
1
 62
     4
 10
844.01135015
 20
755.02150864
 11
849.10984015
 21
760.11999864
  0
LINE
  8
1
 62
     4
 10
856.89570003
 20
767.90585852
 11
878.19866741
 21
789.20882591
  0
LINE
  8
1
 62
     4
 10
890.34467949
 20
801.35483798
 11
894.57675429
 21
805.58691278
  0
LINE
  8
1
 62
     4
 10
900.56276738
 20
811.57292587
 11
905.30927865
 21
816.31943714
  0
LINE
  8
1
 62
     4
 10
912.88570692
 20
823.89586541
 11
918.31153484
 21
829.32169333
  0
LINE
  8
1
 62
     4
 10
815.94072827
 20
729.07220711
 11
821.89207102
 21
735.02354986
  0
LINE
  8
1
 62
     4
 10
830.17660610
 20
743.30808493
 11
835.96473001
 21
749.09620884
  0
LINE
  8
1
 62
     4
 10
843.41945901
 20
756.55093784
 11
848.72193432
 21
761.85341316
  0
LINE
  8
1
 62
     4
 10
856.89570003
 20
770.02717887
 11
876.07734707
 21
789.20882591
  0
LINE
  8
1
 62
     4
 10
888.07182857
 20
801.20330740
 11
893.46976453
 21
806.60124337
  0
LINE
  8
1
 62
     4
 10
899.47150746
 20
812.60298630
 11
904.17133307
 21
817.30281191
  0
LINE
  8
1
 62
     4
 10
911.69618450
 20
824.82766334
 11
917.10212055
 21
830.23359939
  0
LINE
  8
1
 62
     4
 10
815.05157340
 20
730.30437258
 11
821.03310653
 21
736.28590571
  0
LINE
  8
1
 62
     4
 10
829.39836743
 20
744.65116661
 11
835.25763619
 21
750.51043537
  0
LINE
  8
1
 62
     4
 10
842.84595651
 20
758.09875569
 11
848.35175054
 21
763.60454972
  0
LINE
  8
1
 62
     4
 10
856.89570003
 20
772.14849921
 11
873.95602673
 21
789.20882591
  0
LINE
  8
1
 62
     4
 10
885.72107508
 20
800.97387426
 11
892.26238593
 21
807.51518511
  0
LINE
  8
1
 62
     4
 10
898.32297714
 20
813.57577632
 11
902.98671202
 21
818.23951120
  0
LINE
  8
1
 62
     4
 10
910.50597527
 20
825.75877444
 11
915.86995508
 21
831.12275426
  0
LINE
  8
1
 62
     4
 10
814.18540284
 20
731.55952236
 11
820.21209541
 21
737.58621493
  0
LINE
  8
1
 62
     4
 10
828.63121652
 20
746.00533604
 11
834.57704765
 21
751.95116717
  0
LINE
  8
1
 62
     4
 10
842.29059555
 20
759.66471507
 11
847.99679727
 21
765.37091679
  0
LINE
  8
1
 62
     4
 10
856.89570003
 20
774.26981956
 11
871.83470638
 21
789.20882591
  0
LINE
  8
1
 62
     4
 10
883.32426409
 20
800.69838361
 11
890.92303550
 21
808.29715502
  0
LINE
  8
1
 62
     4
 10
897.13583286
 20
814.50995239
 11
901.77827007
 21
819.15238959
  0
LINE
  8
1
 62
     4
 10
909.26731196
 20
826.64143148
 11
914.61480530
 21
831.98892482
  0
LINE
  8
1
 62
     4
 10
813.34248481
 20
732.83792467
 11
819.39974367
 21
738.89518354
  0
LINE
  8
1
 62
     4
 10
827.89394532
 20
747.38938519
 11
833.91041704
 21
753.40585691
  0
LINE
  8
1
 62
     4
 10
841.76114665
 20
761.25658651
 11
847.65563544
 21
767.15107531
  0
LINE
  8
1
 62
     4
 10
856.89570003
 20
776.39113990
 11
869.71338604
 21
789.20882591
  0
LINE
  8
1
 62
     4
 10
880.88948950
 20
800.38492937
 11
889.40291304
 21
808.89835291
  0
LINE
  8
1
 62
     4
 10
895.90525450
 20
815.40069437
 11
900.53680186
 21
820.03224173
  0
LINE
  8
1
 62
     4
 10
908.02518830
 20
827.52062817
 11
913.33640299
 21
832.83184285
  0
LINE
  8
1
 62
     4
 10
812.52312458
 20
734.13988479
 11
818.62302700
 21
740.23978721
  0
LINE
  8
1
 62
     4
 10
827.17765561
 20
748.79441582
 11
833.27155877
 21
754.88831898
  0
LINE
  8
1
 62
     4
 10
841.24902036
 20
762.86578057
 11
847.32765508
 21
768.94441529
  0
LINE
  8
1
 62
     4
 10
856.89570003
 20
778.51246024
 11
867.59206570
 21
789.20882591
  0
LINE
  8
1
 62
     4
 10
878.42254387
 20
800.03930408
 11
887.57043758
 21
809.18719779
  0
LINE
  8
1
 62
     4
 10
894.60833849
 20
816.22509870
 11
899.24943544
 21
820.86619565
  0
LINE
  8
1
 62
     4
 10
906.73417615
 20
828.35093636
 11
912.03444287
 21
833.65120308
  0
LINE
  8
1
 62
     4
 10
811.72766674
 20
735.46574729
 11
817.85805731
 21
741.59613787
  0
LINE
  8
1
 62
     4
 10
826.48179715
 20
750.21987771
 11
832.65346335
 21
756.39154390
  0
LINE
  8
1
 62
     4
 10
840.75468195
 20
764.49276251
 11
847.01245565
 21
770.75053620
  0
LINE
  8
1
 62
     4
 10
856.89570003
 20
780.63378059
 11
865.47074535
 21
789.20882591
  0
LINE
  8
1
 62
     4
 10
875.93183899
 20
799.66991954
 11
885.40292564
 21
809.14100619
  0
LINE
  8
1
 62
     4
 10
893.24096344
 20
816.97904400
 11
897.93890334
 21
821.67698390
  0
LINE
  8
1
 62
     4
 10
905.43787223
 20
829.17595278
 11
910.70858037
 21
834.44666092
  0
LINE
  8
1
 62
     4
 10
810.95649780
 20
736.81589869
 11
817.12749968
 21
742.98690058
  0
LINE
  8
1
 62
     4
 10
825.81817564
 20
751.67757654
 11
832.05072095
 21
757.91012185
  0
LINE
  8
1
 62
     4
 10
840.27865258
 20
766.13805348
 11
846.70983616
 21
772.56923706
  0
LINE
  8
1
 62
     4
 10
856.89570003
 20
782.75510093
 11
863.34942501
 21
789.20882591
  0
LINE
  8
1
 62
     4
 10
873.41506832
 20
799.27446921
 11
883.06843658
 21
808.92783748
  0
LINE
  8
1
 62
     4
 10
891.80241604
 20
817.66181694
 11
896.56958905
 21
822.42898995
  0
LINE
  8
1
 62
     4
 10
904.09046454
 20
829.94986544
 11
909.35842897
 21
835.21782987
  0
LINE
  8
1
 62
     4
 10
810.21004924
 20
738.19077048
 11
816.41102885
 21
744.39175009
  0
LINE
  8
1
 62
     4
 10
825.16653606
 20
753.14725730
 11
831.48045013
 21
759.46117137
  0
LINE
  8
1
 62
     4
 10
839.82427685
 20
767.80499809
 11
846.41980277
 21
774.40052401
  0
LINE
  8
1
 62
     4
 10
856.89570003
 20
784.87642127
 11
861.22810467
 21
789.20882591
  0
LINE
  8
1
 62
     4
 10
870.82174932
 20
798.80247057
 11
880.62977651
 21
808.61049775
  0
LINE
  8
1
 62
     4
 10
890.27789918
 20
818.25862042
 11
895.16177033
 21
823.14249157
  0
LINE
  8
1
 62
     4
 10
902.73724288
 20
830.71796412
 11
907.98355718
 21
835.96427842
  0
LINE
  8
1
 62
     4
 10
809.48880107
 20
739.59084265
 11
815.72911555
 21
745.83115713
  0
LINE
  8
1
 62
     4
 10
824.55635200
 20
754.65839359
 11
830.92920973
 21
761.03125131
  0
LINE
  8
1
 62
     4
 10
839.39265151
 20
769.49469309
 11
846.14259739
 21
776.24463897
  0
LINE
  8
1
 62
     4
 10
856.89570003
 20
786.99774162
 11
859.10678432
 21
789.20882591
  0
LINE
  8
1
 62
     4
 10
868.21242797
 20
798.31446956
 11
878.07620567
 21
808.17824726
  0
LINE
  8
1
 62
     4
 10
888.64681196
 20
818.74885354
 11
893.71950075
 21
823.82154234
  0
LINE
  8
1
 62
     4
 10
901.32837011
 20
831.43041169
 11
906.58348501
 21
836.68552659
  0
LINE
  8
1
 62
     4
 10
808.79328583
 20
741.01664776
 11
815.06263861
 21
747.28600054
  0
LINE
  8
1
 62
     4
 10
823.96235668
 20
756.18571861
 11
830.39617368
 21
762.61953561
  0
LINE
  8
1
 62
     4
 10
838.98189094
 20
771.20525287
 11
845.87875534
 21
778.10211727
  0
LINE
  8
1
 62
     4
 10
856.89570003
 20
789.11906196
 11
856.98546398
 21
789.20882591
  0
LINE
  8
1
 62
     4
 10
865.56059953
 20
797.78396146
 11
875.42842729
 21
807.65178922
  0
LINE
  8
1
 62
     4
 10
886.87953180
 20
819.10289373
 11
892.19768175
 21
824.42104367
  0
LINE
  8
1
 62
     4
 10
899.91495444
 20
832.13831637
 11
905.15767990
 21
837.38104183
  0
LINE
  8
1
 62
     4
 10
808.12409337
 20
742.46877564
 11
814.43258978
 21
748.77727205
  0
LINE
  8
1
 62
     4
 10
823.39729182
 20
757.74197409
 11
829.89798302
 21
764.24266529
  0
LINE
  8
1
 62
     4
 10
838.59386783
 20
772.93855010
 11
845.62920848
 21
779.97389075
  0
LINE
  8
1
 62
     4
 10
862.85742084
 20
797.20210311
 11
872.68892574
 21
807.03360801
  0
LINE
  8
1
 62
     4
 10
884.93462170
 20
819.27930397
 11
890.62998324
 21
824.97466551
  0
LINE
  8
1
 62
     4
 10
898.43827872
 20
832.78296100
 11
903.70555202
 21
838.05023429
  0
LINE
  8
1
 62
     4
 10
807.48187623
 20
743.94787885
 11
813.81802186
 21
750.28402447
  0
LINE
  8
1
 62
     4
 10
822.86568640
 20
759.33168901
 11
829.42303567
 21
765.88903829
  0
LINE
  8
1
 62
     4
 10
838.23109741
 20
774.69710002
 11
845.39546530
 21
781.86146792
  0
LINE
  8
1
 62
     4
 10
860.07938754
 20
796.54539016
 11
869.85786543
 21
806.32386804
  0
LINE
  8
1
 62
     4
 10
882.79655650
 20
819.26255911
 11
889.01034896
 21
825.47635157
  0
LINE
  8
1
 62
     4
 10
896.95459587
 20
833.42059849
 11
902.22644881
 21
838.69245143
  0
LINE
  8
1
 62
     4
 10
806.86735605
 20
745.45467900
 11
813.24394790
 21
751.83127086
  0
LINE
  8
1
 62
     4
 10
822.35274145
 20
760.94006440
 11
828.97162192
 21
767.55894488
  0
LINE
  8
1
 62
     4
 10
837.89703214
 20
776.48435510
 11
845.17993117
 21
783.76725413
  0
LINE
  8
1
 62
     4
 10
857.21626231
 20
795.80358527
 11
866.92052704
 21
805.50785000
  0
LINE
  8
1
 62
     4
 10
880.53103899
 20
819.11836194
 11
887.29577815
 21
825.88310111
  0
LINE
  8
1
 62
     4
 10
895.40835503
 20
833.99567799
 11
900.71964866
 21
839.30697162
  0
LINE
  8
1
 62
     4
 10
806.28133084
 20
746.98997414
 11
812.68367901
 21
753.39232231
  0
LINE
  8
1
 62
     4
 10
821.88510750
 20
762.59375080
 11
828.55306640
 21
769.26170970
  0
LINE
  8
1
 62
     4
 10
837.59653652
 20
778.30517982
 11
844.99279666
 21
785.70143996
  0
LINE
  8
1
 62
     4
 10
854.20611914
 20
794.91476244
 11
863.85087232
 21
804.55951562
  0
LINE
  8
1
 62
     4
 10
878.15000883
 20
818.85865213
 11
885.50051905
 21
826.20916235
  0
LINE
  8
1
 62
     4
 10
893.84447208
 20
834.55311538
 11
899.18435352
 21
839.89299682
  0
LINE
  8
1
 62
     4
 10
805.72468366
 20
748.55464730
 11
812.17079088
 21
755.00075452
  0
LINE
  8
1
 62
     4
 10
821.44590502
 20
764.27586867
 11
828.17215248
 21
771.00211612
  0
LINE
  8
1
 62
     4
 10
837.33668444
 20
780.16664809
 11
844.84576062
 21
787.67572427
  0
LINE
  8
1
 62
     4
 10
850.94270371
 20
793.77266736
 11
860.64840703
 21
803.47837068
  0
LINE
  8
1
 62
     4
 10
875.65034484
 20
818.48030849
 11
883.61724964
 21
826.44721329
  0
LINE
  8
1
 62
     4
 10
892.22399061
 20
835.05395426
 11
897.61968036
 21
840.44964400
  0
LINE
  8
1
 62
     4
 10
805.19839264
 20
750.14967663
 11
811.66775749
 21
756.61904148
  0
LINE
  8
1
 62
     4
 10
821.03273669
 20
765.98402068
 11
827.82489106
 21
772.77617505
  0
LINE
  8
1
 62
     4
 10
837.12816707
 20
782.07945105
 11
845.14441277
 21
790.09569676
  0
LINE
  8
1
 62
     4
 10
846.63753323
 20
791.58881722
 11
857.24554005
 21
802.19682404
  0
LINE
  8
1
 62
     4
 10
873.02300005
 20
817.97428404
 11
881.62838242
 21
826.57966641
  0
LINE
  8
1
 62
     4
 10
890.56835110
 20
835.51963509
 11
896.02465103
 21
840.97593502
  0
LINE
  8
1
 62
     4
 10
804.70354288
 20
751.77614721
 11
811.22265109
 21
758.29525542
  0
LINE
  8
1
 62
     4
 10
820.67686663
 20
767.74947097
 11
827.51675837
 21
774.58936271
  0
LINE
  8
1
 62
     4
 10
836.99322733
 20
784.06583166
 11
853.57466528
 21
800.64726961
  0
LINE
  8
1
 62
     4
 10
870.27831009
 20
817.35091443
 11
879.51506678
 21
826.58767111
  0
LINE
  8
1
 62
     4
 10
888.86706143
 20
835.93966577
 11
894.39818045
 21
841.47078478
  0
LINE
  8
1
 62
     4
 10
804.24134048
 20
753.43526516
 11
810.78854766
 21
759.98247234
  0
LINE
  8
1
 62
     4
 10
820.35620331
 20
769.55012799
 11
827.25510277
 21
776.44902745
  0
LINE
  8
1
 62
     4
 10
837.05442432
 20
786.24834900
 11
849.44569873
 21
798.63962340
  0
LINE
  8
1
 62
     4
 10
867.37277877
 20
816.56670344
 11
877.28520828
 21
826.47913295
  0
LINE
  8
1
 62
     4
 10
887.10487657
 20
836.29880125
 11
892.73906251
 21
841.93298718
  0
LINE
  8
1
 62
     4
 10
803.81312928
 20
755.12837429
 11
810.41147218
 21
761.72671720
  0
LINE
  8
1
 62
     4
 10
820.07474186
 20
771.38998688
 11
827.05015346
 21
778.36539848
  0
LINE
  8
1
 62
     4
 10
838.37248555
 20
789.68773057
 11
843.98531363
 21
795.30055865
  0
LINE
  8
1
 62
     4
 10
864.31167120
 20
815.62691622
 11
874.93615167
 21
826.25139669
  0
LINE
  8
1
 62
     4
 10
885.31491638
 20
836.63016140
 11
891.04595337
 21
842.36119839
  0
LINE
  8
1
 62
     4
 10
803.42041088
 20
756.85697624
 11
810.05893730
 21
763.49550267
  0
LINE
  8
1
 62
     4
 10
819.85325464
 20
773.28982000
 11
826.91673272
 21
780.35329809
  0
LINE
  8
1
 62
     4
 10
861.07139592
 20
814.50796128
 11
872.50130653
 21
825.93787189
  0
LINE
  8
1
 62
     4
 10
883.42708123
 20
836.86364660
 11
889.31735142
 21
842.75391678
  0
LINE
  8
1
 62
     4
 10
803.06486887
 20
758.62275458
 11
809.75226120
 21
765.31014691
  0
LINE
  8
1
 62
     4
 10
819.69668967
 20
775.25457537
 11
826.88408898
 21
782.44197468
  0
LINE
  8
1
 62
     4
 10
857.57075732
 20
813.12864303
 11
869.95521805
 21
825.51310376
  0
LINE
  8
1
 62
     4
 10
881.49827236
 20
837.05615807
 11
887.55157308
 21
843.10945879
  0
LINE
  8
1
 62
     4
 10
802.74839821
 20
760.42760426
 11
809.49388495
 21
767.17309100
  0
LINE
  8
1
 62
     4
 10
819.60479818
 20
777.28400423
 11
827.08479796
 21
784.76400401
  0
LINE
  8
1
 62
     4
 10
853.77743776
 20
811.45664381
 11
867.25821842
 21
824.93742447
  0
LINE
  8
1
 62
     4
 10
879.50052820
 20
837.17973425
 11
885.74672340
 21
843.42592945
  0
LINE
  8
1
 62
     4
 10
802.47314135
 20
762.27366775
 11
809.26398591
 21
769.06451230
  0
LINE
  8
1
 62
     4
 10
819.60362066
 20
779.40414705
 11
827.69962264
 21
787.50014903
  0
LINE
  8
1
 62
     4
 10
849.51350520
 20
809.31403159
 11
864.40611296
 21
824.20663936
  0
LINE
  8
1
 62
     4
 10
877.40489111
 20
837.20541751
 11
883.90065991
 21
843.70118631
  0
LINE
  8
1
 62
     4
 10
802.24153295
 20
764.16337968
 11
809.11616949
 21
771.03801623
  0
LINE
  8
1
 62
     4
 10
819.74305545
 20
781.66490219
 11
829.19067861
 21
791.11252535
  0
LINE
  8
1
 62
     4
 10
844.31695202
 20
806.23879875
 11
861.35891114
 21
823.28075788
  0
LINE
  8
1
 62
     4
 10
875.23625287
 20
837.15809961
 11
882.01094798
 21
843.93279471
  0
LINE
  8
1
 62
     4
 10
802.05635584
 20
766.09952292
 11
809.00641637
 21
773.04958345
  0
LINE
  8
1
 62
     4
 10
820.09224976
 20
784.13541684
 11
858.07020383
 21
822.11337091
  0
LINE
  8
1
 62
     4
 10
872.98695296
 20
837.03012004
 11
880.07480474
 21
844.11797182
  0
LINE
  8
1
 62
     4
 10
801.92081200
 20
768.08529943
 11
808.95518786
 21
775.11967528
  0
LINE
  8
1
 62
     4
 10
820.72069335
 20
786.88518077
 11
854.49752484
 21
820.66201227
  0
LINE
  8
1
 62
     4
 10
870.68213795
 20
836.84662538
 11
878.08902824
 21
844.25351566
  0
LINE
  8
1
 62
     4
 10
801.83861361
 20
770.12442138
 11
809.00577260
 21
777.29158037
  0
LINE
  8
1
 62
     4
 10
821.73182058
 20
790.01762835
 11
850.48517881
 21
818.77098658
  0
LINE
  8
1
 62
     4
 10
868.25076288
 20
836.53657065
 11
876.04990628
 21
844.33571405
  0
LINE
  8
1
 62
     4
 10
801.81410174
 20
772.22122985
 11
809.13685668
 21
779.54398479
  0
LINE
  8
1
 62
     4
 10
823.44940692
 20
793.85653503
 11
845.77894159
 21
816.18606970
  0
LINE
  8
1
 62
     4
 10
865.72241890
 20
836.12954701
 11
873.95309781
 21
844.36022592
  0
LINE
  8
1
 62
     4
 10
801.85240361
 20
774.38085207
 11
809.37113441
 21
781.89958286
  0
LINE
  8
1
 62
     4
 10
826.75788607
 20
799.28633453
 11
839.42226400
 21
811.95071246
  0
LINE
  8
1
 62
     4
 10
863.07303556
 20
835.60148401
 11
871.79347559
 21
844.32192405
  0
LINE
  8
1
 62
     4
 10
801.95964512
 20
776.60941392
 11
809.75821982
 21
784.40798862
  0
LINE
  8
1
 62
     4
 10
860.27722110
 20
834.92698990
 11
869.56491374
 21
844.21468254
  0
LINE
  8
1
 62
     4
 10
802.14324422
 20
778.91433337
 11
810.32045157
 21
787.09154071
  0
LINE
  8
1
 62
     4
 10
857.30102384
 20
834.07211298
 11
867.25999429
 21
844.03108344
  0
LINE
  8
1
 62
     4
 10
802.41232665
 20
781.30473614
 11
811.08565425
 21
789.97806373
  0
LINE
  8
1
 62
     4
 10
854.09755985
 20
832.98996934
 11
864.86959152
 21
843.76200101
  0
LINE
  8
1
 62
     4
 10
802.77833283
 20
783.79206266
 11
812.11796216
 21
793.13169199
  0
LINE
  8
1
 62
     4
 10
850.59967838
 20
831.61340820
 11
862.38226500
 21
843.39599483
  0
LINE
  8
1
 62
     4
 10
803.25593621
 20
786.39098638
 11
813.54608127
 21
796.68113144
  0
LINE
  8
1
 62
     4
 10
846.70702383
 20
829.84207400
 11
859.78334128
 21
842.91839146
  0
LINE
  8
1
 62
     4
 10
803.86449456
 20
789.12086508
 11
815.63001715
 21
800.88638766
  0
LINE
  8
1
 62
     4
 10
842.19766412
 20
827.45403464
 11
857.05346259
 21
842.30983310
  0
LINE
  8
1
 62
     4
 10
804.63047072
 20
792.00816158
 11
819.00933528
 21
806.38702614
  0
LINE
  8
1
 62
     4
 10
836.32174394
 20
823.69943480
 11
854.16616608
 21
841.54385694
  0
LINE
  8
1
 62
     4
 10
805.59175799
 20
795.09076920
 11
851.08355846
 21
840.58256967
  0
LINE
  8
1
 62
     4
 10
806.80614863
 20
798.42648018
 11
847.74784748
 21
839.36817903
  0
LINE
  8
1
 62
     4
 10
808.37017934
 20
802.11183123
 11
844.06249644
 21
837.80414833
  0
LINE
  8
1
 62
     4
 10
810.47013810
 20
806.33311033
 11
839.84121733
 21
835.70418956
  0
LINE
  8
1
 62
     4
 10
813.57861262
 20
811.56290520
 11
834.61142247
 21
832.59571504
  0
LINE
  8
1
 62
     4
 10
844.02839940
 20
706.24818999
 11
849.28982358
 21
711.50961417
  0
LINE
  8
1
 62
     4
 10
857.04447034
 20
719.26426093
 11
862.58745606
 21
724.80724665
  0
LINE
  8
1
 62
     4
 10
874.52984022
 20
736.74963081
 11
884.37685525
 21
746.59664584
  0
LINE
  8
1
 62
     4
 10
902.58895398
 20
764.80874457
 11
909.56935936
 21
771.78914995
  0
LINE
  8
1
 62
     4
 10
918.21879914
 20
780.43858973
 11
924.69278790
 21
786.91257849
  0
LINE
  8
1
 62
     4
 10
933.63780574
 20
795.85759633
 11
939.92613767
 21
802.14592826
  0
LINE
  8
1
 62
     4
 10
845.49674285
 20
705.59521309
 11
850.76735812
 21
710.86582837
  0
LINE
  8
1
 62
     4
 10
858.65747550
 20
718.75594575
 11
864.64937335
 21
724.74784359
  0
LINE
  8
1
 62
     4
 10
877.31357577
 20
737.41204601
 11
887.11877049
 21
747.21724074
  0
LINE
  8
1
 62
     4
 10
902.82851880
 20
762.92698904
 11
909.94377225
 21
770.04224250
  0
LINE
  8
1
 62
     4
 10
918.70905629
 20
778.80752653
 11
925.24318305
 21
785.34165329
  0
LINE
  8
1
 62
     4
 10
934.25238386
 20
794.35085410
 11
940.57911457
 21
800.67758481
  0
LINE
  8
1
 62
     4
 10
846.99248891
 20
704.96963881
 11
852.29252097
 21
710.26967087
  0
LINE
  8
1
 62
     4
 10
860.33840941
 20
718.31555931
 11
866.86017419
 21
724.83732409
  0
LINE
  8
1
 62
     4
 10
880.21782041
 20
738.19497031
 11
889.94881919
 21
747.92596910
  0
LINE
  8
1
 62
     4
 10
903.05044931
 20
761.02759921
 11
910.28969101
 21
768.26684091
  0
LINE
  8
1
 62
     4
 10
919.16869673
 20
777.14584664
 11
925.76094647
 21
783.73809638
  0
LINE
  8
1
 62
     4
 10
934.84803018
 20
792.82518008
 11
941.20468885
 21
799.18183875
  0
LINE
  8
1
 62
     4
 10
848.51640442
 20
704.37223398
 11
853.83878547
 21
709.69461503
  0
LINE
  8
1
 62
     4
 10
862.08769937
 20
717.94352893
 11
869.19857107
 21
725.05440063
  0
LINE
  8
1
 62
     4
 10
883.22579791
 20
739.08162747
 11
892.88870673
 21
748.74453628
  0
LINE
  8
1
 62
     4
 10
903.25118287
 20
759.10701243
 11
910.60433252
 21
766.46016208
  0
LINE
  8
1
 62
     4
 10
919.59534235
 20
775.45117190
 11
926.24367714
 21
782.09950670
  0
LINE
  8
1
 62
     4
 10
935.40831143
 20
791.26414099
 11
941.80209368
 21
797.65792324
  0
LINE
  8
1
 62
     4
 10
850.06933765
 20
703.80384686
 11
855.44747341
 21
709.18198262
  0
LINE
  8
1
 62
     4
 10
863.91783332
 20
717.65234253
 11
871.65434902
 21
725.38885823
  0
LINE
  8
1
 62
     4
 10
886.37920568
 20
740.11371490
 11
896.02734301
 21
749.76185222
  0
LINE
  8
1
 62
     4
 10
903.41707601
 20
757.15158522
 11
910.88156373
 21
764.61607295
  0
LINE
  8
1
 62
     4
 10
919.99388044
 20
773.72838965
 11
926.70418761
 21
780.43869682
  0
LINE
  8
1
 62
     4
 10
935.94393772
 20
789.67844693
 11
942.37048080
 21
796.10499001
  0
LINE
  8
1
 62
     4
 10
851.65222779
 20
703.26541666
 11
857.07107312
 21
708.68426199
  0
LINE
  8
1
 62
     4
 10
865.88230185
 20
717.49549072
 11
874.22197240
 21
725.83516127
  0
LINE
  8
1
 62
     4
 10
889.68742983
 20
741.30061870
 11
899.65277816
 21
751.26596704
  0
LINE
  8
1
 62
     4
 10
903.51402119
 20
755.12721006
 11
911.10954583
 21
762.72273471
  0
LINE
  8
1
 62
     4
 10
920.36049642
 20
771.97368529
 11
927.11817571
 21
778.73136458
  0
LINE
  8
1
 62
     4
 10
936.44698525
 20
788.06017412
 11
942.90891100
 21
794.52209987
  0
LINE
  8
1
 62
     4
 10
853.26611604
 20
702.75798457
 11
858.77238381
 21
708.26425234
  0
LINE
  8
1
 62
     4
 10
867.96097708
 20
717.45284561
 11
876.93617890
 21
726.42804742
  0
LINE
  8
1
 62
     4
 10
893.23839367
 20
742.73026220
 11
911.27376121
 21
760.76562974
  0
LINE
  8
1
 62
     4
 10
920.68589545
 20
770.17776398
 11
927.49631017
 21
776.98817870
  0
LINE
  8
1
 62
     4
 10
936.91624806
 20
786.40811659
 11
943.41634309
 21
792.90821162
  0
LINE
  8
1
 62
     4
 10
854.91215878
 20
702.28270697
 11
860.49940873
 21
707.86995692
  0
LINE
  8
1
 62
     4
 10
870.14485431
 20
717.51540250
 11
879.76806201
 21
727.13861020
  0
LINE
  8
1
 62
     4
 10
897.14715827
 20
744.51770646
 11
911.33590732
 21
758.70645550
  0
LINE
  8
1
 62
     4
 10
920.96115007
 20
768.33169826
 11
927.84225252
 21
775.21280071
  0
LINE
  8
1
 62
     4
 10
937.35848569
 20
784.72903387
 11
943.89162069
 21
791.26216888
  0
LINE
  8
1
 62
     4
 10
856.59164313
 20
701.84087097
 11
862.28938714
 21
707.53861499
  0
LINE
  8
1
 62
     4
 10
872.39651758
 20
717.64574542
 11
882.76110526
 21
728.01033310
  0
LINE
  8
1
 62
     4
 10
901.84801993
 20
747.09724777
 11
910.78197142
 21
756.03119926
  0
LINE
  8
1
 62
     4
 10
921.18533561
 20
766.43456345
 11
928.13445744
 21
773.38368528
  0
LINE
  8
1
 62
     4
 10
937.75331687
 20
783.00254471
 11
944.33345669
 21
789.58268453
  0
LINE
  8
1
 62
     4
 10
858.30600560
 20
701.43391310
 11
864.13830192
 21
707.26620942
  0
LINE
  8
1
 62
     4
 10
874.78578807
 20
717.91369556
 11
885.94029231
 21
729.06819981
  0
LINE
  8
1
 62
     4
 10
921.34663997
 20
764.47454747
 11
928.37327525
 21
771.50118274
  0
LINE
  8
1
 62
     4
 10
938.13040843
 20
781.25831593
 11
944.74041456
 21
787.86832206
  0
LINE
  8
1
 62
     4
 10
860.05685456
 20
701.06344171
 11
866.02641779
 21
707.03300495
  0
LINE
  8
1
 62
     4
 10
877.33195937
 20
718.33854653
 11
889.31736977
 21
730.32395692
  0
LINE
  8
1
 62
     4
 10
921.42793301
 20
762.43452017
 11
928.56142980
 21
769.56801695
  0
LINE
  8
1
 62
     4
 10
938.44049780
 20
779.44708496
 11
945.11088595
 21
786.11747310
  0
LINE
  8
1
 62
     4
 10
861.84599737
 20
700.73126418
 11
868.02137985
 21
706.90664666
  0
LINE
  8
1
 62
     4
 10
879.97442232
 20
718.85968913
 11
892.99254566
 21
731.87781247
  0
LINE
  8
1
 62
     4
 10
921.35570974
 20
760.24097655
 11
928.68944555
 21
767.57471236
  0
LINE
  8
1
 62
     4
 10
938.72935175
 20
777.61461856
 11
945.44306348
 21
784.32833029
  0
LINE
  8
1
 62
     4
 10
863.67547373
 20
700.43942019
 11
870.06927341
 21
706.83321988
  0
LINE
  8
1
 62
     4
 10
882.76704905
 20
719.53099552
 11
897.04716280
 21
733.81110927
  0
LINE
  8
1
 62
     4
 10
920.92775400
 20
757.69170046
 11
928.74023088
 21
765.50417735
  0
LINE
  8
1
 62
     4
 10
938.95926485
 20
775.72321132
 11
945.73490747
 21
782.49885394
  0
LINE
  8
1
 62
     4
 10
865.54759661
 20
700.19022273
 11
872.21006522
 21
706.85269134
  0
LINE
  8
1
 62
     4
 10
885.73309322
 20
720.37571935
 11
901.77885555
 21
736.42148167
  0
LINE
  8
1
 62
     4
 10
919.88847081
 20
754.53109693
 11
928.65741451
 21
763.30004063
  0
LINE
  8
1
 62
     4
 10
939.14063377
 20
773.78325989
 11
945.98410493
 21
780.62673105
  0
LINE
  8
1
 62
     4
 10
867.46500349
 20
699.98630927
 11
874.43446684
 21
706.95577262
  0
LINE
  8
1
 62
     4
 10
888.90339093
 20
721.42469671
 11
908.31494323
 21
740.83624901
  0
LINE
  8
1
 62
     4
 10
917.03885750
 20
749.56016328
 11
928.39759455
 21
760.91890033
  0
LINE
  8
1
 62
     4
 10
939.28598660
 20
771.80729238
 11
946.18801839
 21
778.70932417
  0
LINE
  8
1
 62
     4
 10
869.43072080
 20
699.83070624
 11
876.70791934
 21
707.10790478
  0
LINE
  8
1
 62
     4
 10
892.35505870
 20
722.75504413
 11
927.90575416
 21
758.30573959
  0
LINE
  8
1
 62
     4
 10
939.33895096
 20
769.73893640
 11
946.34362142
 21
776.74360686
  0
LINE
  8
1
 62
     4
 10
871.44824633
 20
699.72691143
 11
879.07899197
 21
707.35765707
  0
LINE
  8
1
 62
     4
 10
896.17325842
 20
724.45192351
 11
927.04346067
 21
755.32212577
  0
LINE
  8
1
 62
     4
 10
939.33552442
 20
767.61418951
 11
946.44741624
 21
774.72608133
  0
LINE
  8
1
 62
     4
 10
873.52165585
 20
699.67900060
 11
881.56098590
 21
707.71833065
  0
LINE
  8
1
 62
     4
 10
900.55645847
 20
726.71380322
 11
925.66613863
 21
751.82348338
  0
LINE
  8
1
 62
     4
 10
939.26354484
 20
765.42088959
 11
946.49532707
 21
772.65267181
  0
LINE
  8
1
 62
     4
 10
875.65574352
 20
699.69176792
 11
884.17697882
 21
708.21300323
  0
LINE
  8
1
 62
     4
 10
906.01251019
 20
730.04853459
 11
923.22823670
 21
747.26426110
  0
LINE
  8
1
 62
     4
 10
939.04679478
 20
763.08281918
 11
946.48255974
 21
770.51858414
  0
LINE
  8
1
 62
     4
 10
877.85621007
 20
699.77091414
 11
886.92461020
 21
708.83931426
  0
LINE
  8
1
 62
     4
 10
938.70977114
 20
760.62447520
 11
946.40341353
 21
768.31811759
  0
LINE
  8
1
 62
     4
 10
880.12992030
 20
699.92330402
 11
889.83201826
 21
709.62540198
  0
LINE
  8
1
 62
     4
 10
938.22582394
 20
758.01920766
 11
946.25102364
 21
766.04440736
  0
LINE
  8
1
 62
     4
 10
882.48526402
 20
700.15732739
 11
892.93691169
 21
710.60897506
  0
LINE
  8
1
 62
     4
 10
937.55275341
 20
755.22481679
 11
946.01700027
 21
763.68906364
  0
LINE
  8
1
 62
     4
 10
884.93267648
 20
700.48341951
 11
896.29145495
 21
711.84219798
  0
LINE
  8
1
 62
     4
 10
936.63093327
 20
752.18167631
 11
945.69090815
 21
761.24165118
  0
LINE
  8
1
 62
     4
 10
887.48541421
 20
700.91483690
 11
899.97647873
 21
713.40590142
  0
LINE
  8
1
 62
     4
 10
935.37264975
 20
748.80207244
 11
945.25949076
 21
758.68891345
  0
LINE
  8
1
 62
     4
 10
890.16075886
 20
701.46886121
 11
904.23542714
 21
715.54352948
  0
LINE
  8
1
 62
     4
 10
933.64249283
 20
744.95059518
 11
944.70546645
 21
756.01356880
  0
LINE
  8
1
 62
     4
 10
892.98197982
 20
702.16876182
 11
909.40720167
 21
718.59398367
  0
LINE
  8
1
 62
     4
 10
930.91391261
 20
740.10069461
 11
944.00556584
 21
753.19234784
  0
LINE
  8
1
 62
     4
 10
895.98173939
 20
703.04720105
 11
917.86926919
 21
724.93473085
  0
LINE
  8
1
 62
     4
 10
925.03127440
 20
732.09673606
 11
943.12712661
 21
750.19258827
  0
LINE
  8
1
 62
     4
 10
899.20850108
 20
704.15264239
 11
942.02168527
 21
746.96582658
  0
LINE
  8
1
 62
     4
 10
902.74000709
 20
705.56282806
 11
940.61149960
 21
743.43432057
  0
LINE
  8
1
 62
     4
 10
906.71665111
 20
707.41815174
 11
938.75617593
 21
739.45767655
  0
LINE
  8
1
 62
     4
 10
911.44988418
 20
710.03006446
 11
936.14426320
 21
734.72444348
  0
LINE
  8
1
 62
     4
 10
918.07367976
 20
714.53253970
 11
931.64178797
 21
728.10064791
  0
ENDBLK
  0
ENDSEC
  0
SECTION
  2
ENTITIES
  0
INSERT
  8
0
  2
H-395-8022-60-17-2D_00001
 10
0.00000000
 20
0.00000000
  0
INSERT
  8
0
  2
BEM_________________00005
 10
1099.59211069
 20
3741.32104613
  0
INSERT
  8
0
  2
TEXT________________00006
 10
291.08993943
 20
1164.67285027
  0
INSERT
  8
0
  2
ANS3D01_____________00008
 10
0.00000000
 20
0.00000000
  0
INSERT
  8
0
  2
SEITENWAND_SA_______00011
 10
2126.67109889
 20
1584.22092503
  0
INSERT
  8
0
  2
DINA4H______________00012
 10
74.99588013
 20
4380.00000000
  0
ENDSEC
  0
EOF
