  0
SECTION
  2
HEADER
  9
$INSBASE
 10
0.00000000
 20
0.00000000
 30
0.00000000
  9
$EXTMIN
 10
-987.84048777
 20
-35.64002197
  9
$EXTMAX
 10
3507.83719187
 20
3599.64221924
  9
$LIMMIN
 10
-987.84048777
 20
-35.64002197
  9
$LIMMAX
 10
3507.83719187
 20
3599.64221924
  9
$ANGBASE
 50
0.000
  9
$ANGDIR
 70
     0
  9
$HANDLING
 70
     0
  0
ENDSEC
  0
SECTION
  2
TABLES
  0
TABLE
  2
LTYPE
 70
     9
  0
LTYPE
  2
CONTINUOUS
 70
    64
  3
Solid line
 72
    65
 73
     0
 40
0.000
  0
LTYPE
  2
PUNKT
 70
    64
  3
..............
 72
    65
 73
     2
 40
2.000
 49
0.500
 49
-1.500
  0
LTYPE
  2
VERDECKT
 70
    64
  3
-- -- -- -- --
 72
    65
 73
     2
 40
7.000
 49
4.000
 49
-3.000
  0
LTYPE
  2
CONTINUOUS
 70
    64
  3
--.--.--.--.--
 72
    65
 73
     4
 40
8.500
 49
4.000
 49
-2.000
 49
0.500
 49
-2.000
  0
LTYPE
  2
STRICHPUNKT2
 70
    64
  3
--.--.--.--.--
 72
    65
 73
     4
 40
18.500
 49
10.000
 49
-4.000
 49
0.500
 49
-4.000
  0
LTYPE
  2
STRICHPUNKT3
 70
    64
  3
--.--.--.--.--
 72
    65
 73
     4
 40
35.500
 49
25.000
 49
-5.000
 49
0.500
 49
-5.000
  0
LTYPE
  2
PHANTOM
 70
    64
  3
--..--..--..--
 72
    65
 73
     6
 40
23.000
 49
10.000
 49
-4.000
 49
0.500
 49
-4.000
 49
0.500
 49
-4.000
  0
LTYPE
  2
PHANTOM2
 70
    64
  3
--..--..--..--
 72
    65
 73
     6
 40
33.000
 49
20.000
 49
-4.000
 49
0.500
 49
-4.000
 49
0.500
 49
-4.000
  0
LTYPE
  2
PHANTOM3
 70
    64
  3
--..--..--..--
 72
    65
 73
     6
 40
50.000
 49
37.000
 49
-4.000
 49
0.500
 49
-4.000
 49
0.500
 49
-4.000
  0
ENDTAB
  0
TABLE
  2
LAYER
 70
     6
  0
LAYER
  2
0
 70
    64
 62
     7
  6
CONTINUOUS
  0
LAYER
  2
LAY_999
 70
    64
 62
     7
  6
CONTINUOUS
  0
LAYER
  2
1
 70
    64
 62
     7
  6
CONTINUOUS
  0
LAYER
  2
2
 70
    64
 62
     7
  6
CONTINUOUS
  0
LAYER
  2
10
 70
    64
 62
     7
  6
CONTINUOUS
  0
LAYER
  2
49
 70
    64
 62
     7
  6
CONTINUOUS
  0
ENDTAB
  0
ENDSEC
  0
SECTION
  2
BLOCKS
  0
BLOCK
  8
0
  2
BEM_0001
 70
    64
 10
695.72287613
 20
3050.74224197
  3
BEM_0001
  0
LINE
  8
49
 62
     4
 10
695.72287613
 20
3199.74224206
 11
695.72287613
 21
3050.74224197
  0
LINE
  8
49
 62
     4
 10
695.72287613
 20
3175.74224206
 11
725.72287613
 21
3180.54224206
  0
LINE
  8
49
 62
     4
 10
725.72287613
 20
3180.54224206
 11
725.72287613
 21
3170.94224206
  0
LINE
  8
49
 62
     4
 10
725.72287613
 20
3170.94224206
 11
695.72287613
 21
3175.74224206
  0
LINE
  8
49
 62
     4
 10
724.82287613
 20
3175.74224206
 11
696.62287613
 21
3175.74224206
  0
LINE
  8
49
 62
     4
 10
724.82287613
 20
3173.94224206
 11
707.87287613
 21
3173.94224206
  0
LINE
  8
49
 62
     4
 10
724.82287613
 20
3177.54224206
 11
707.87287613
 21
3177.54224206
  0
LINE
  8
49
 62
     4
 10
724.82287613
 20
3172.14224206
 11
719.12287613
 21
3172.14224206
  0
LINE
  8
49
 62
     4
 10
724.82287613
 20
3179.34224206
 11
719.12287613
 21
3179.34224206
  0
LINE
  8
49
 62
     4
 10
1165.72287613
 20
3199.74224206
 11
1165.72287613
 21
3050.74224197
  0
LINE
  8
49
 62
     4
 10
1165.72287613
 20
3175.74224206
 11
1135.72287613
 21
3170.94224206
  0
LINE
  8
49
 62
     4
 10
1135.72287613
 20
3170.94224206
 11
1135.72287613
 21
3180.54224206
  0
LINE
  8
49
 62
     4
 10
1135.72287613
 20
3180.54224206
 11
1165.72287613
 21
3175.74224206
  0
LINE
  8
49
 62
     4
 10
1136.62287613
 20
3175.74224206
 11
1164.82287613
 21
3175.74224206
  0
LINE
  8
49
 62
     4
 10
1136.62287613
 20
3177.54224206
 11
1153.57287613
 21
3177.54224206
  0
LINE
  8
49
 62
     4
 10
1136.62287613
 20
3173.94224206
 11
1153.57287613
 21
3173.94224206
  0
LINE
  8
49
 62
     4
 10
1136.62287613
 20
3179.34224206
 11
1142.32287613
 21
3179.34224206
  0
LINE
  8
49
 62
     4
 10
1136.62287613
 20
3172.14224206
 11
1142.32287613
 21
3172.14224206
  0
LINE
  8
49
 62
     4
 10
725.72287613
 20
3175.74224206
 11
1135.72287613
 21
3175.74224206
  0
TEXT
  8
49
 62
     2
 10
882.43599587
 20
3193.74224206
 40
42.00000000
  1
470
 50
0.000000000
 41
0.812
 51
0.000000000
  7
STANDARD
  0
ENDBLK
  8
0
  0
BLOCK
  8
0
  2
BEM_0002
 70
    64
 10
1165.72287613
 20
1355.74212086
  3
BEM_0002
  0
LINE
  8
49
 62
     4
 10
1339.72287166
 20
1355.74212086
 11
1165.72287613
 21
1355.74212086
  0
LINE
  8
49
 62
     4
 10
1315.72287166
 20
1355.74212086
 11
1310.92287166
 21
1385.74212086
  0
LINE
  8
49
 62
     4
 10
1310.92287166
 20
1385.74212086
 11
1320.52287166
 21
1385.74212086
  0
LINE
  8
49
 62
     4
 10
1320.52287166
 20
1385.74212086
 11
1315.72287166
 21
1355.74212086
  0
LINE
  8
49
 62
     4
 10
1315.72287166
 20
1384.84212086
 11
1315.72287166
 21
1356.64212086
  0
LINE
  8
49
 62
     4
 10
1317.52287166
 20
1384.84212086
 11
1317.52287166
 21
1367.89212086
  0
LINE
  8
49
 62
     4
 10
1313.92287166
 20
1384.84212086
 11
1313.92287166
 21
1367.89212086
  0
LINE
  8
49
 62
     4
 10
1319.32287166
 20
1384.84212086
 11
1319.32287166
 21
1379.14212086
  0
LINE
  8
49
 62
     4
 10
1312.12287166
 20
1384.84212086
 11
1312.12287166
 21
1379.14212086
  0
LINE
  8
49
 62
     4
 10
1339.72287166
 20
3050.74224197
 11
1165.72287613
 21
3050.74224197
  0
LINE
  8
49
 62
     4
 10
1315.72287166
 20
3050.74224197
 11
1320.52287166
 21
3020.74224197
  0
LINE
  8
49
 62
     4
 10
1320.52287166
 20
3020.74224197
 11
1310.92287166
 21
3020.74224197
  0
LINE
  8
49
 62
     4
 10
1310.92287166
 20
3020.74224197
 11
1315.72287166
 21
3050.74224197
  0
LINE
  8
49
 62
     4
 10
1315.72287166
 20
3021.64224197
 11
1315.72287166
 21
3049.84224197
  0
LINE
  8
49
 62
     4
 10
1313.92287166
 20
3021.64224197
 11
1313.92287166
 21
3038.59224197
  0
LINE
  8
49
 62
     4
 10
1317.52287166
 20
3021.64224197
 11
1317.52287166
 21
3038.59224197
  0
LINE
  8
49
 62
     4
 10
1312.12287166
 20
3021.64224197
 11
1312.12287166
 21
3027.34224197
  0
LINE
  8
49
 62
     4
 10
1319.32287166
 20
3021.64224197
 11
1319.32287166
 21
3027.34224197
  0
LINE
  8
49
 62
     4
 10
1315.72287166
 20
1385.74212086
 11
1315.72287166
 21
3020.74224197
  0
TEXT
  8
49
 62
     2
 10
1297.72287166
 20
2137.89278747
 40
42.00000000
  1
1695
 50
90.000000000
 41
0.812
 51
0.000000000
  7
STANDARD
  0
ENDBLK
  8
0
  0
BLOCK
  8
0
  2
BEM_0003
 70
    64
 10
1197.87869242
 20
1291.64212086
  3
BEM_0003
  0
LINE
  8
49
 62
     4
 10
1429.62031225
 20
1291.64212086
 11
1197.87869242
 21
1291.64212086
  0
LINE
  8
49
 62
     4
 10
1405.62031225
 20
1291.64212086
 11
1400.82031210
 21
1321.64212084
  0
LINE
  8
49
 62
     4
 10
1400.82031210
 20
1321.64212084
 11
1410.42031210
 21
1321.64212088
  0
LINE
  8
49
 62
     4
 10
1410.42031210
 20
1321.64212088
 11
1405.62031225
 21
1291.64212086
  0
LINE
  8
49
 62
     4
 10
1405.62031210
 20
1320.74212086
 11
1405.62031224
 21
1292.54212086
  0
LINE
  8
49
 62
     4
 10
1407.42031210
 20
1320.74212087
 11
1407.42031219
 21
1303.79212087
  0
LINE
  8
49
 62
     4
 10
1403.82031210
 20
1320.74212085
 11
1403.82031219
 21
1303.79212085
  0
LINE
  8
49
 62
     4
 10
1409.22031210
 20
1320.74212088
 11
1409.22031213
 21
1315.04212088
  0
LINE
  8
49
 62
     4
 10
1402.02031210
 20
1320.74212084
 11
1402.02031213
 21
1315.04212084
  0
LINE
  8
49
 62
     4
 10
1429.62030343
 20
3087.64212086
 11
1205.62030641
 21
3087.64212086
  0
LINE
  8
49
 62
     4
 10
1405.62030343
 20
3087.64212086
 11
1410.42030357
 21
3057.64212088
  0
LINE
  8
49
 62
     4
 10
1410.42030357
 20
3057.64212088
 11
1400.82030357
 21
3057.64212084
  0
LINE
  8
49
 62
     4
 10
1400.82030357
 20
3057.64212084
 11
1405.62030343
 21
3087.64212086
  0
LINE
  8
49
 62
     4
 10
1405.62030357
 20
3058.54212086
 11
1405.62030343
 21
3086.74212086
  0
LINE
  8
49
 62
     4
 10
1403.82030357
 20
3058.54212085
 11
1403.82030349
 21
3075.49212085
  0
LINE
  8
49
 62
     4
 10
1407.42030357
 20
3058.54212087
 11
1407.42030349
 21
3075.49212087
  0
LINE
  8
49
 62
     4
 10
1402.02030357
 20
3058.54212084
 11
1402.02030354
 21
3064.24212084
  0
LINE
  8
49
 62
     4
 10
1409.22030357
 20
3058.54212088
 11
1409.22030354
 21
3064.24212088
  0
LINE
  8
49
 62
     4
 10
1405.62031210
 20
1321.64212086
 11
1405.62030357
 21
3057.64212086
  0
TEXT
  8
49
 62
     2
 10
1387.62030816
 20
2124.29272570
 40
42.00000000
  1
1796
 50
90.000000281
 41
0.812
 51
0.000000000
  7
STANDARD
  0
ENDBLK
  8
0
  0
BLOCK
  8
0
  2
BEM_0004
 70
    64
 10
655.72287613
 20
3087.64212086
  3
BEM_0004
  0
LINE
  8
49
 62
     4
 10
655.72287613
 20
3286.64211825
 11
655.72287613
 21
3087.64212086
  0
LINE
  8
49
 62
     4
 10
655.72287613
 20
3262.64211825
 11
685.72287613
 21
3267.44211825
  0
LINE
  8
49
 62
     4
 10
685.72287613
 20
3267.44211825
 11
685.72287613
 21
3257.84211825
  0
LINE
  8
49
 62
     4
 10
685.72287613
 20
3257.84211825
 11
655.72287613
 21
3262.64211825
  0
LINE
  8
49
 62
     4
 10
684.82287613
 20
3262.64211825
 11
656.62287613
 21
3262.64211825
  0
LINE
  8
49
 62
     4
 10
684.82287613
 20
3260.84211825
 11
667.87287613
 21
3260.84211825
  0
LINE
  8
49
 62
     4
 10
684.82287613
 20
3264.44211825
 11
667.87287613
 21
3264.44211825
  0
LINE
  8
49
 62
     4
 10
684.82287613
 20
3259.04211825
 11
679.12287613
 21
3259.04211825
  0
LINE
  8
49
 62
     4
 10
684.82287613
 20
3266.24211825
 11
679.12287613
 21
3266.24211825
  0
LINE
  8
49
 62
     4
 10
1205.62030641
 20
3286.64211825
 11
1205.62030641
 21
3087.64212086
  0
LINE
  8
49
 62
     4
 10
1205.62030641
 20
3262.64211825
 11
1175.62030641
 21
3257.84211825
  0
LINE
  8
49
 62
     4
 10
1175.62030641
 20
3257.84211825
 11
1175.62030641
 21
3267.44211825
  0
LINE
  8
49
 62
     4
 10
1175.62030641
 20
3267.44211825
 11
1205.62030641
 21
3262.64211825
  0
LINE
  8
49
 62
     4
 10
1176.52030641
 20
3262.64211825
 11
1204.72030641
 21
3262.64211825
  0
LINE
  8
49
 62
     4
 10
1176.52030641
 20
3264.44211825
 11
1193.47030641
 21
3264.44211825
  0
LINE
  8
49
 62
     4
 10
1176.52030641
 20
3260.84211825
 11
1193.47030641
 21
3260.84211825
  0
LINE
  8
49
 62
     4
 10
1176.52030641
 20
3266.24211825
 11
1182.22030641
 21
3266.24211825
  0
LINE
  8
49
 62
     4
 10
1176.52030641
 20
3259.04211825
 11
1182.22030641
 21
3259.04211825
  0
LINE
  8
49
 62
     4
 10
685.72287613
 20
3262.64211825
 11
1175.62030641
 21
3262.64211825
  0
TEXT
  8
49
 62
     2
 10
876.88574516
 20
3280.64211825
 40
42.00000000
  1
550
 50
0.000000000
 41
0.812
 51
0.000000000
  7
STANDARD
  0
ENDBLK
  8
0
  0
BLOCK
  8
0
  2
BEM_0005
 70
    64
 10
1708.75677935
 20
3088.66724712
  3
BEM_0005
  0
LINE
  8
49
 62
     4
 10
1708.75677935
 20
3199.74223766
 11
1708.75677935
 21
3088.66724712
  0
LINE
  8
49
 62
     4
 10
1708.75677935
 20
3175.74223766
 11
1678.75677994
 21
3180.54224133
  0
LINE
  8
49
 62
     4
 10
1678.75677994
 20
3180.54224133
 11
1678.75677877
 21
3170.94224133
  0
LINE
  8
49
 62
     4
 10
1678.75677877
 20
3170.94224133
 11
1708.75677935
 21
3175.74223766
  0
LINE
  8
49
 62
     4
 10
1679.65677935
 20
3175.74224122
 11
1707.85677935
 21
3175.74223777
  0
LINE
  8
49
 62
     4
 10
1679.65677957
 20
3177.54224122
 11
1696.60677957
 21
3177.54223915
  0
LINE
  8
49
 62
     4
 10
1679.65677913
 20
3173.94224122
 11
1696.60677913
 21
3173.94223915
  0
LINE
  8
49
 62
     4
 10
1679.65677979
 20
3179.34224122
 11
1685.35677979
 21
3179.34224052
  0
LINE
  8
49
 62
     4
 10
1679.65677891
 20
3172.14224122
 11
1685.35677891
 21
3172.14224052
  0
LINE
  8
49
 62
     4
 10
1678.75677935
 20
3175.74224133
 11
1630.75677935
 21
3175.74224719
  0
LINE
  8
49
 62
     4
 10
1725.22030484
 20
3199.74223565
 11
1725.22030484
 21
3085.16724712
  0
LINE
  8
49
 62
     4
 10
1725.22030484
 20
3175.74223565
 11
1755.22030426
 21
3170.94223199
  0
LINE
  8
49
 62
     4
 10
1755.22030426
 20
3170.94223199
 11
1755.22030543
 21
3180.54223199
  0
LINE
  8
49
 62
     4
 10
1755.22030543
 20
3180.54223199
 11
1725.22030484
 21
3175.74223565
  0
LINE
  8
49
 62
     4
 10
1754.32030484
 20
3175.74223210
 11
1726.12030484
 21
3175.74223554
  0
LINE
  8
49
 62
     4
 10
1754.32030462
 20
3173.94223210
 11
1737.37030462
 21
3173.94223417
  0
LINE
  8
49
 62
     4
 10
1754.32030506
 20
3177.54223210
 11
1737.37030506
 21
3177.54223417
  0
LINE
  8
49
 62
     4
 10
1754.32030440
 20
3172.14223210
 11
1748.62030440
 21
3172.14223279
  0
LINE
  8
49
 62
     4
 10
1754.32030528
 20
3179.34223210
 11
1748.62030528
 21
3179.34223279
  0
LINE
  8
49
 62
     4
 10
1755.22030484
 20
3175.74223199
 11
1855.46905599
 21
3175.74221974
  0
LINE
  8
49
 62
     4
 10
1708.75677935
 20
3175.74223766
 11
1725.22030484
 21
3175.74223565
  0
TEXT
  8
49
 62
     2
 10
1793.02030835
 20
3195.06222754
 40
42.00000000
  1
16
 50
359.999992999
 41
0.812
 51
0.000000000
  7
STANDARD
  0
ENDBLK
  8
0
  0
BLOCK
  8
0
  2
H-395-8022-60-17-2D_00001
 70
    64
 10
0.00000000
 20
0.00000000
  3
H-395-8022-60-17-2D_00001
  0
INSERT
  8
0
  2
SEITENWAND__________00002
 10
0.00000000
 20
0.00000000
  0
ENDBLK
  0
BLOCK
  8
0
  2
SEITENWAND__________00002
 70
    64
 10
0.00000000
 20
0.00000000
  3
SEITENWAND__________00002
  0
INSERT
  8
0
  2
MASSEPUNKT__________00003
 10
930.49272360
 20
1487.32770819
  0
INSERT
  8
0
  2
SEITENWAND_VA_______00004
 10
1197.87869242
 20
3084.14212086
  0
ENDBLK
  0
BLOCK
  8
0
  2
MASSEPUNKT__________00003
 70
    64
 10
930.49272360
 20
1487.32770819
  3
MASSEPUNKT__________00003
  0
LINE
  8
1
 62
     2
 10
930.49272360
 20
1487.32770819
 11
930.49272360
 21
1472.07004974
  0
LINE
  8
1
 62
     2
 10
945.85272360
 20
1472.07004974
 11
915.13272360
 21
1472.07004974
  0
LINE
  8
1
 62
     2
 10
934.06658106
 20
1456.71004974
 11
926.91886613
 21
1456.71004974
  0
LINE
  8
1
 62
     2
 10
939.95965233
 20
1464.39004974
 11
921.02579487
 21
1464.39004974
  0
CIRCLE
  8
1
 62
     2
 10
930.49272360
 20
1470.59432856
 40
20.21964410
  0
ENDBLK
  0
BLOCK
  8
0
  2
SEITENWAND_VA_______00004
 70
    64
 10
1197.87869242
 20
3084.14212086
  3
SEITENWAND_VA_______00004
  0
POLYLINE
  8
1
 66
     1
  0
VERTEX
  8
1
 10
1197.87869242
 20
3084.14212086
  0
VERTEX
  8
1
 10
1197.87869242
 20
1293.64212086
  0
VERTEX
  8
1
 10
1197.87869242
 20
3084.14212086
  0
VERTEX
  8
1
 10
1197.87869242
 20
3085.48151287
  0
VERTEX
  8
1
 10
1197.87869242
 20
3086.61699459
  0
VERTEX
  8
1
 10
1197.87869242
 20
3087.37569922
  0
VERTEX
  8
1
 10
1197.87869242
 20
3087.64212086
  0
VERTEX
  8
1
 10
663.46449012
 20
3087.64212086
  0
VERTEX
  8
1
 10
663.46449012
 20
3087.37569922
  0
VERTEX
  8
1
 10
663.46449012
 20
3086.61699459
  0
VERTEX
  8
1
 10
663.46449012
 20
3085.48151287
  0
VERTEX
  8
1
 10
663.46449012
 20
3084.14212086
  0
VERTEX
  8
1
 10
663.46449012
 20
1293.64212086
  0
VERTEX
  8
1
 10
663.46449012
 20
3084.14212086
  0
SEQEND
  8
1
  0
POLYLINE
  8
1
 66
     1
  0
VERTEX
  8
1
 10
663.46449012
 20
1304.14212086
  0
VERTEX
  8
1
 10
663.46449012
 20
1293.64212086
  0
VERTEX
  8
1
 10
663.46449012
 20
1292.87675399
  0
VERTEX
  8
1
 10
663.46449012
 20
1292.22790730
  0
VERTEX
  8
1
 10
663.46449012
 20
1291.79436179
  0
VERTEX
  8
1
 10
663.46449012
 20
1291.64212086
  0
VERTEX
  8
1
 10
1197.87869242
 20
1291.64212086
  0
VERTEX
  8
1
 10
1197.87869242
 20
1291.79436179
  0
VERTEX
  8
1
 10
1197.87869242
 20
1292.22790730
  0
VERTEX
  8
1
 10
1197.87869242
 20
1292.87675399
  0
VERTEX
  8
1
 10
1197.87869242
 20
1293.64212086
  0
VERTEX
  8
1
 10
1197.87869242
 20
1304.14212086
  0
SEQEND
  8
1
  0
POLYLINE
  8
1
 66
     1
  0
VERTEX
  8
1
 10
663.46449012
 20
1293.64212086
  0
VERTEX
  8
1
 10
663.46449012
 20
1293.45077914
  0
VERTEX
  8
1
 10
663.46449012
 20
1293.28856747
  0
VERTEX
  8
1
 10
663.46449012
 20
1293.18018109
  0
VERTEX
  8
1
 10
663.46449012
 20
1293.14212086
  0
SEQEND
  8
1
  0
POLYLINE
  8
1
 66
     1
  0
VERTEX
  8
1
 10
1197.87869242
 20
1293.64212086
  0
VERTEX
  8
1
 10
1197.87869242
 20
1293.45077914
  0
VERTEX
  8
1
 10
1197.87869242
 20
1293.28856747
  0
VERTEX
  8
1
 10
1197.87869242
 20
1293.18018109
  0
VERTEX
  8
1
 10
1197.87869242
 20
1293.14212086
  0
SEQEND
  8
1
  0
POLYLINE
  8
1
  6
VERDECKT
 62
     4
 66
     1
  0
VERTEX
  8
1
 10
695.72287613
 20
3050.74224197
  0
VERTEX
  8
1
 10
1165.72287613
 20
3050.74224197
  0
VERTEX
  8
1
 10
1165.72287613
 20
1355.74212086
  0
VERTEX
  8
1
 10
695.72287613
 20
1355.74212086
  0
VERTEX
  8
1
 10
695.72287613
 20
3050.74224197
  0
SEQEND
  8
1
  0
POLYLINE
  8
1
 66
     1
  0
VERTEX
  8
1
 10
655.72287613
 20
3087.64212086
  0
VERTEX
  8
1
 10
655.72287613
 20
1300.45077914
 42
0.054641919
  0
VERTEX
  8
1
 10
656.06822530
 20
1297.30010248
 42
0.055929981
  0
VERTEX
  8
1
 10
656.42291813
 20
1296.26486555
 42
0.082376512
  0
VERTEX
  8
1
 10
656.87090070
 20
1295.61869937
 42
0.202760957
  0
VERTEX
  8
1
 10
657.26796110
 20
1295.45077914
  0
SEQEND
  8
1
  0
POLYLINE
  8
1
 66
     1
  0
VERTEX
  8
1
 10
1204.19436808
 20
1295.65509913
 42
0.146841312
  0
VERTEX
  8
1
 10
1204.47228182
 20
1295.81004109
 42
0.082376512
  0
VERTEX
  8
1
 10
1204.92026440
 20
1296.45620727
 42
0.055929981
  0
VERTEX
  8
1
 10
1205.27495724
 20
1297.49144420
 42
0.054641919
  0
VERTEX
  8
1
 10
1205.62030641
 20
1300.64212086
  0
VERTEX
  8
1
 10
1205.62030641
 20
3087.64212086
  0
SEQEND
  8
1
  0
ARC
  8
1
  6
VERDECKT
 62
     3
 10
930.67159127
 20
1421.64212086
 40
3.23320625
 50
-90.000000000
 51
180.000000000
  0
CIRCLE
  8
1
 10
675.67159127
 20
2960.74212086
 40
3.00000000
  0
CIRCLE
  8
1
 10
675.67159127
 20
1410.74212086
 40
3.00000000
  0
CIRCLE
  8
1
 10
1185.67159127
 20
1410.74212086
 40
3.00000000
  0
CIRCLE
  8
1
 10
675.67159127
 20
2185.74212086
 40
3.00000000
  0
CIRCLE
  8
1
 10
1185.67159127
 20
2185.74212086
 40
3.00000000
  0
CIRCLE
  8
1
 10
1185.67159127
 20
2960.74212086
 40
3.00000000
  0
CIRCLE
  8
1
  6
VERDECKT
 62
     3
 10
930.67159127
 20
1421.64212086
 40
4.00000000
  0
CIRCLE
  8
1
  6
VERDECKT
 62
     3
 10
930.67159127
 20
1421.64212086
 40
4.00000000
  0
LINE
  8
1
 10
1205.62030641
 20
3087.64212086
 11
1197.87869242
 21
3087.64212086
  0
LINE
  8
1
 10
663.46449012
 20
3087.64212086
 11
655.72287613
 21
3087.64212086
  0
ENDBLK
  0
BLOCK
  8
0
  2
BEM_________________00005
 70
    64
 10
695.72287613
 20
3050.74224197
  3
BEM_________________00005
  0
INSERT
  8
49
  2
BEM_0001
 10
695.72287613
 20
3050.74224197
 41
1.00000000
 42
1.00000000
 50
0.000000000
  0
INSERT
  8
49
  2
BEM_0002
 10
1165.72287613
 20
1355.74212086
 41
1.00000000
 42
1.00000000
 50
0.000000000
  0
INSERT
  8
49
  2
BEM_0003
 10
1197.87869242
 20
1291.64212086
 41
1.00000000
 42
1.00000000
 50
0.000000000
  0
INSERT
  8
49
  2
BEM_0004
 10
655.72287613
 20
3087.64212086
 41
1.00000000
 42
1.00000000
 50
0.000000000
  0
LINE
  8
1
 10
1204.29077546
 20
1295.68582680
 11
1197.87869242
 21
1293.64212086
  0
LINE
  8
1
 10
657.26796110
 20
1295.45077914
 11
663.46449012
 21
1293.64212086
  0
INSERT
  8
49
  2
BEM_0005
 10
1708.75677935
 20
3088.66724712
 41
1.00000000
 42
1.00000000
 50
0.000000000
  0
ENDBLK
  0
BLOCK
  8
0
  2
TEXT________________00006
 70
    64
 10
233.65327991
 20
942.07146330
  3
TEXT________________00006
  0
TEXT
  8
1
 62
     2
 10
233.65327991
 20
942.07146330
 40
42.00000000
  1
Blechstärke:  1,50 mm
 50
0.000000000
 41
0.812
 51
0.000000000
  7
STANDARD
  0
TEXT
  8
1
 62
     2
 10
234.47420368
 20
877.77671299
 40
42.00000000
  1
Oberfläche:   pulverlackiert RAL 7035
 50
0.000000000
 41
0.812
 51
0.000000000
  7
STANDARD
  0
TEXT
  8
1
 62
     2
 10
844.86816821
 20
2712.27834675
 40
42.00000000
  1
Montage-
 50
0.000000000
 41
0.625
 51
0.000000000
  7
STANDARD
  0
TEXT
  8
1
 62
     2
 10
236.50698412
 20
811.99572188
 40
42.00000000
  1
Masse:        Gewindebolzen M8 x 20
 50
0.000000000
 41
0.812
 51
0.000000000
  7
STANDARD
  0
TEXT
  8
1
 62
     2
 10
866.97241640
 20
2646.87924444
 40
42.00000000
  1
fläche
 50
0.000000000
 41
0.625
 51
0.000000000
  7
STANDARD
  0
INSERT
  8
0
  2
MASSEPUNKT__________00007
 10
0.00000000
 20
0.00000000
  0
ENDBLK
  0
BLOCK
  8
0
  2
MASSEPUNKT__________00007
 70
    64
 10
0.00000000
 20
0.00000000
  3
MASSEPUNKT__________00007
  0
ENDBLK
  0
BLOCK
  8
0
  2
ANS3D01_____________00008
 70
    64
 10
0.00000000
 20
0.00000000
  3
ANS3D01_____________00008
  0
INSERT
  8
0
  2
FIG3D01_____________00009
 10
0.00000000
 20
0.00000000
  0
INSERT
  8
0
  2
FIG2D01_____________00010
 10
0.00000000
 20
0.00000000
  0
ENDBLK
  0
BLOCK
  8
0
  2
FIG3D01_____________00009
 70
    64
 10
0.00000000
 20
0.00000000
  3
FIG3D01_____________00009
  0
ENDBLK
  0
BLOCK
  8
0
  2
FIG2D01_____________00010
 70
    64
 10
0.00000000
 20
0.00000000
  3
FIG2D01_____________00010
  0
ENDBLK
  0
BLOCK
  8
0
  2
SEITENWAND_SA_______00011
 70
    64
 10
1722.80186432
 20
1293.64212086
  3
SEITENWAND_SA_______00011
  0
POLYLINE
  8
1
 66
     1
  0
VERTEX
  8
1
 10
1722.80186432
 20
1293.64212086
  0
VERTEX
  8
1
 10
1722.89587535
 20
1293.64212086
  0
VERTEX
  8
1
 10
1723.33833883
 20
1293.64212086
  0
VERTEX
  8
1
 10
1723.62241788
 20
1293.64212086
  0
VERTEX
  8
1
 10
1723.72030484
 20
1293.64212086
  0
SEQEND
  8
1
  0
ARC
  8
1
 10
1713.98617225
 20
1298.64212086
 40
5.22939290
 50
180.000000000
 51
-154.008882584
  0
ARC
  8
1
 10
1713.73944933
 20
1298.52180951
 40
4.95489878
 50
-154.009130833
 51
-135.846311496
  0
ARC
  8
1
 10
1713.62915174
 20
1298.41472312
 40
4.80116832
 50
-135.846311496
 51
-117.410657932
  0
ARC
  8
1
 10
1713.51206193
 20
1298.18903575
 40
4.54691489
 50
-117.410083864
 51
-90.000000000
  0
LINE
  8
1
 10
1713.97558743
 20
1293.64212086
 11
1722.33833883
 21
1293.64212086
  0
POLYLINE
  8
1
 66
     1
  0
VERTEX
  8
1
 10
1725.22030484
 20
1293.64212086
  0
VERTEX
  8
1
 10
1725.04900265
 20
1293.64212086
  0
VERTEX
  8
1
 10
1724.55186432
 20
1293.64212086
  0
VERTEX
  8
1
 10
1723.77755323
 20
1293.64212086
  0
VERTEX
  8
1
 10
1722.80186432
 20
1293.64212086
  0
VERTEX
  8
1
 10
1722.33833883
 20
1293.64212086
  0
SEQEND
  8
1
  0
LINE
  8
1
 10
1725.22030484
 20
1293.64212086
 11
1725.22030484
 21
3085.16724712
  0
POLYLINE
  8
1
 66
     1
  0
VERTEX
  8
1
 10
1713.97558743
 20
1293.64212086
  0
VERTEX
  8
1
 10
1713.51206193
 20
1293.64212086
  0
SEQEND
  8
1
  0
ARC
  8
1
 10
1713.51206193
 20
1298.18903575
 40
4.54691489
 50
-117.410083864
 51
-90.000000000
  0
ARC
  8
1
 10
1713.62915174
 20
1298.41472312
 40
4.80116832
 50
-135.846311496
 51
-117.410657932
  0
ARC
  8
1
 10
1713.73944933
 20
1298.52180951
 40
4.95489878
 50
-154.009130833
 51
-135.846311496
  0
ARC
  8
1
 10
1713.98617225
 20
1298.64212086
 40
5.22939290
 50
180.000000000
 51
-154.008882584
  0
LINE
  8
1
 10
1722.80186432
 20
1293.64212086
 11
1713.97558743
 21
1293.64212086
  0
LINE
  8
1
 10
1722.80186432
 20
1293.64212086
 11
1722.80186432
 21
3087.11724712
  0
LINE
  8
1
 10
1708.75677935
 20
1298.64212086
 11
1708.75677935
 21
3088.66724712
  0
POLYLINE
  8
1
 66
     1
  0
VERTEX
  8
1
 10
1725.22030484
 20
3085.16724712
  0
VERTEX
  8
1
 10
1724.95388321
 20
3086.50663914
  0
VERTEX
  8
1
 10
1724.19517858
 20
3087.64212086
  0
VERTEX
  8
1
 10
1723.05969686
 20
3088.40082549
  0
VERTEX
  8
1
 10
1721.72030484
 20
3088.66724712
  0
VERTEX
  8
1
 10
1708.75677935
 20
3088.66724712
  0
SEQEND
  8
1
  0
LINE
  8
1
 10
1722.72030484
 20
1293.64212086
 11
1721.22030484
 21
1293.64212086
  0
POLYLINE
  8
1
 66
     1
  0
VERTEX
  8
1
 10
1725.22030484
 20
1293.64212086
  0
VERTEX
  8
1
 10
1725.06806391
 20
1292.87675399
  0
VERTEX
  8
1
 10
1724.63451841
 20
1292.22790730
  0
VERTEX
  8
1
 10
1723.98567171
 20
1291.79436179
  0
VERTEX
  8
1
 10
1723.22030484
 20
1291.64212086
  0
VERTEX
  8
1
 10
1722.45493798
 20
1291.79436179
  0
VERTEX
  8
1
 10
1721.80609128
 20
1292.22790730
  0
VERTEX
  8
1
 10
1721.37254578
 20
1292.87675399
  0
VERTEX
  8
1
 10
1721.22030484
 20
1293.64212086
  0
VERTEX
  8
1
 10
1722.72030484
 20
1293.64212086
  0
VERTEX
  8
1
 10
1722.75836508
 20
1293.45077914
  0
VERTEX
  8
1
 10
1722.86675145
 20
1293.28856747
  0
VERTEX
  8
1
 10
1723.02896313
 20
1293.18018109
  0
VERTEX
  8
1
 10
1723.22030484
 20
1293.14212086
  0
VERTEX
  8
1
 10
1723.41164656
 20
1293.18018109
  0
VERTEX
  8
1
 10
1723.57385823
 20
1293.28856747
  0
VERTEX
  8
1
 10
1723.68224461
 20
1293.45077914
  0
VERTEX
  8
1
 10
1723.72030484
 20
1293.64212086
  0
VERTEX
  8
1
 10
1723.77755323
 20
1293.64212086
  0
VERTEX
  8
1
 10
1723.72030484
 20
1293.64212086
  0
SEQEND
  8
1
  0
LINE
  8
1
 10
1725.22030484
 20
1293.64212086
 11
1725.22030484
 21
3085.16724712
  0
LINE
  8
1
 10
1725.22030484
 20
2951.76724713
 11
1725.22030484
 21
2971.76724713
  0
LINE
  8
1
 10
1725.22030484
 20
2951.76724712
 11
1725.22030484
 21
2971.76724712
  0
LINE
  8
1
 10
1725.22030484
 20
2076.76724712
 11
1725.22030484
 21
2096.76724712
  0
LINE
  8
1
 10
1725.22030484
 20
2076.76724712
 11
1725.22030484
 21
2096.76724712
  0
LINE
  8
1
 10
1725.22030484
 20
1400.74212086
 11
1725.22030484
 21
1420.74212086
  0
LINE
  8
1
 10
1725.22030484
 20
1400.74212086
 11
1725.22030484
 21
1420.74212086
  0
LINE
  8
1
 10
1725.22030484
 20
1419.42212086
 11
1725.22030484
 21
1423.86212086
  0
POLYLINE
  8
1
 66
     1
  0
VERTEX
  8
1
 10
1725.22030484
 20
2951.76724712
  0
VERTEX
  8
1
 10
1725.22030484
 20
2971.76724712
  0
VERTEX
  8
1
 10
1725.22030484
 20
2951.76724713
  0
VERTEX
  8
1
 10
1725.22030484
 20
2971.76724713
  0
VERTEX
  8
1
 10
1725.22030484
 20
2951.76724713
  0
SEQEND
  8
1
  0
POLYLINE
  8
1
 66
     1
  0
VERTEX
  8
1
 10
1725.22030484
 20
2076.76724712
  0
VERTEX
  8
1
 10
1725.22030484
 20
2096.76724712
  0
VERTEX
  8
1
 10
1725.22030484
 20
2076.76724713
  0
VERTEX
  8
1
 10
1725.22030484
 20
2096.76724713
  0
VERTEX
  8
1
 10
1725.22030484
 20
2076.76724713
  0
SEQEND
  8
1
  0
POLYLINE
  8
1
 66
     1
  0
VERTEX
  8
1
 10
1725.22030484
 20
1400.74212086
  0
VERTEX
  8
1
 10
1725.22030484
 20
1420.74212086
  0
VERTEX
  8
1
 10
1725.22030484
 20
1400.74212086
  0
VERTEX
  8
1
 10
1725.22030484
 20
1420.74212086
  0
VERTEX
  8
1
 10
1725.22030484
 20
1400.74212086
  0
SEQEND
  8
1
  0
POLYLINE
  8
1
 66
     1
  0
VERTEX
  8
1
 10
1703.72030484
 20
1418.40891461
  0
VERTEX
  8
1
 10
1703.72030484
 20
1424.87532711
  0
VERTEX
  8
1
 10
1703.72030484
 20
1418.40891461
  0
SEQEND
  8
1
  0
LINE
  8
1
 62
     1
 10
1708.75677935
 20
1424.87532711
 11
1703.72030484
 21
1424.87532711
  0
LINE
  8
1
 62
     1
 10
1703.72030484
 20
1418.40891461
 11
1708.75677935
 21
1418.40891461
  0
LINE
  8
1
 10
1704.48709859
 20
1425.64212086
 11
1704.48709859
 21
1417.64212086
  0
POLYLINE
  8
1
 66
     1
  0
VERTEX
  8
1
 10
1708.75677935
 20
1425.64212086
  0
VERTEX
  8
1
 10
1704.48709859
 20
1425.64212086
  0
VERTEX
  8
1
 10
1703.72030484
 20
1424.87532711
  0
SEQEND
  8
1
  0
LINE
  8
1
 10
1704.48709859
 20
1417.64212086
 11
1708.75677935
 21
1417.64212086
  0
LINE
  8
1
 10
1703.72030484
 20
1418.40891461
 11
1704.48709859
 21
1417.64212086
  0
POLYLINE
  8
1
 66
     1
  0
VERTEX
  8
1
 10
1703.72030484
 20
1424.87532711
  0
VERTEX
  8
1
 10
1703.72030484
 20
1418.40891461
  0
VERTEX
  8
1
 10
1703.72030484
 20
1424.87532711
  0
SEQEND
  8
1
  0
ENDBLK
  0
BLOCK
  8
0
  2
DINA4H______________00012
 70
    64
 10
59.99670410
 20
3504.00000000
  3
DINA4H______________00012
  0
POLYLINE
  8
10
 66
     1
  0
VERTEX
  8
10
 10
59.99670410
 20
3504.00000000
  0
VERTEX
  8
10
 10
60.00000000
 20
60.00000000
  0
VERTEX
  8
10
 10
2460.00000000
 20
60.00219727
  0
VERTEX
  8
10
 10
2459.99633789
 20
3504.00237542
  0
VERTEX
  8
10
 10
59.99670410
 20
3504.00000000
  0
SEQEND
  8
10
  0
POLYLINE
  8
10
 62
     4
 66
     1
  0
VERTEX
  8
10
 10
2520.00000000
 20
0.00219727
  0
VERTEX
  8
10
 10
2519.99633789
 20
3564.00219727
  0
VERTEX
  8
10
 10
-0.00329590
 20
3564.00000000
  0
VERTEX
  8
10
 10
0.00000000
 20
0.00000000
  0
VERTEX
  8
10
 10
2520.00000000
 20
0.00219727
  0
SEQEND
  8
10
  0
LINE
  8
10
 62
     4
 10
2459.99780273
 20
2280.00219727
 11
2519.99780273
 21
2280.00219727
  0
LINE
  8
10
 62
     4
 10
2459.99707031
 20
3324.00219727
 11
2519.99707031
 21
3324.00219727
  0
LINE
  8
10
 62
     4
 10
59.99670410
 20
3324.00000000
 11
-0.00329590
 21
3324.00000000
  0
LINE
  8
10
 62
     4
 10
59.99780273
 20
2279.99963379
 11
-0.00219727
 21
2279.99963379
  0
INSERT
  8
0
  2
SCHRIFE_____________00013
 10
213.49804687
 20
264.00219727
  0
ENDBLK
  0
BLOCK
  8
0
  2
SCHRIFE_____________00013
 70
    64
 10
213.49804687
 20
264.00219727
  3
SCHRIFE_____________00013
  0
POLYLINE
  8
10
 62
     4
 66
     1
  0
VERTEX
  8
10
 10
213.49804687
 20
264.00219727
  0
VERTEX
  8
10
 10
868.69775391
 20
264.00219727
  0
VERTEX
  8
10
 10
2460.00000000
 20
264.00219727
  0
SEQEND
  8
10
  0
POLYLINE
  8
10
 66
     1
  0
VERTEX
  8
10
 10
2459.89819336
 20
723.00219727
  0
VERTEX
  8
10
 10
213.49804687
 20
723.00219727
  0
VERTEX
  8
10
 10
213.49804687
 20
59.89229141
  0
SEQEND
  8
10
  0
LINE
  8
10
 62
     4
 10
307.09790039
 20
519.00219727
 11
307.09790039
 21
59.89429090
  0
LINE
  8
10
 62
     4
 10
619.09790039
 20
519.00219727
 11
619.09790039
 21
59.89429924
  0
LINE
  8
10
 62
     4
 10
775.09790039
 20
519.00219727
 11
775.09790039
 21
59.89430322
  0
LINE
  8
10
 62
     4
 10
213.49804687
 20
315.00219727
 11
1399.09790039
 21
315.00219727
  0
LINE
  8
10
 62
     4
 10
2459.89819336
 20
111.00219727
 11
213.49804687
 21
111.00219727
  0
LINE
  8
10
 62
     4
 10
1929.49804688
 20
111.00219727
 11
1929.49804688
 21
60.00219727
  0
LINE
  8
10
 62
     4
 10
1399.09790039
 20
59.89337686
 11
1399.09790039
 21
723.00219727
  0
LINE
  8
10
 62
     4
 10
868.69775391
 20
59.89289126
 11
868.69775391
 21
723.00219727
  0
LINE
  8
10
 62
     4
 10
2459.89819336
 20
519.00219727
 11
213.49804687
 21
519.00219727
  0
LINE
  8
10
 62
     4
 10
1180.69775391
 20
264.00219727
 11
1180.69775391
 21
723.00219727
  0
LINE
  8
10
 62
     4
 10
2023.09790039
 20
646.50219727
 11
2023.09790039
 21
723.00219727
  0
LINE
  8
10
 62
     4
 10
2303.89819336
 20
264.00219727
 11
2303.89819336
 21
111.00219727
  0
LINE
  8
10
 62
     4
 10
993.49804687
 20
315.00219727
 11
993.49804687
 21
519.00219727
  0
LINE
  8
10
 62
     4
 10
213.49804687
 20
468.00219727
 11
1399.09790039
 21
468.00219727
  0
LINE
  8
10
 62
     4
 10
213.49804687
 20
417.00219727
 11
1399.09790039
 21
417.00219727
  0
LINE
  8
10
 62
     4
 10
213.49804687
 20
366.00219727
 11
1399.09790039
 21
366.00219727
  0
LINE
  8
10
 62
     4
 10
213.49804687
 20
213.00219727
 11
868.69775391
 21
213.00219727
  0
LINE
  8
10
 62
     4
 10
213.49804687
 20
162.00219727
 11
868.69775391
 21
162.00219727
  0
LINE
  8
10
 62
     4
 10
2459.89819336
 20
646.50219727
 11
1399.09790039
 21
646.50219727
  0
LINE
  8
10
 62
     4
 10
2459.89819336
 20
162.00219727
 11
2303.89819336
 21
162.00219727
  0
TEXT
  8
1
 62
     4
 10
1040.22290039
 20
480.00219727
 40
30.00000000
  1
Datum
 50
0.000000000
 41
0.625
 51
0.000000000
  7
STANDARD
  0
TEXT
  8
1
 62
     4
 10
1252.39782715
 20
480.00219727
 40
30.00000000
  1
Name
 50
0.000000000
 41
0.625
 51
0.000000000
  7
STANDARD
  0
TEXT
  8
1
 62
     4
 10
883.74169922
 20
378.00219727
 40
30.00000000
  1
Gepr.
 50
0.000000000
 41
0.625
 51
0.000000000
  7
STANDARD
  0
TEXT
  8
1
 62
     4
 10
883.74169922
 20
327.00219727
 40
30.00000000
  1
Norm
 50
0.000000000
 41
0.625
 51
0.000000000
  7
STANDARD
  0
TEXT
  8
1
 62
     4
 10
223.38002245
 20
71.89428987
 40
30.00000000
  1
Zust.
 50
0.000000000
 41
0.625
 51
0.000000000
  7
STANDARD
  0
TEXT
  8
1
 62
     4
 10
388.09790039
 20
71.89429506
 40
30.00000000
  1
Änderung
 50
0.000000000
 41
0.625
 51
0.000000000
  7
STANDARD
  0
TEXT
  8
1
 62
     4
 10
650.22290039
 20
71.89430128
 40
30.00000000
  1
Datum
 50
0.000000000
 41
0.625
 51
0.000000000
  7
STANDARD
  0
TEXT
  8
1
 62
     4
 10
786.79782715
 20
71.89430460
 40
30.00000000
  1
Name
 50
0.000000000
 41
0.625
 51
0.000000000
  7
STANDARD
  0
TEXT
  8
1
 62
     4
 10
1442.80590820
 20
663.51965332
 40
30.00000000
  1
Maßstab:
 50
0.000000000
 41
0.812
 51
0.000000000
  7
STANDARD
  0
TEXT
  8
1
 62
     4
 10
880.69775391
 20
71.89430584
 40
30.00000000
  1
Urspr.
 50
0.000000000
 41
0.625
 51
0.000000000
  7
STANDARD
  0
TEXT
  8
1
 62
     4
 10
1411.09790039
 20
71.89431994
 40
30.00000000
  1
Ers. f.:
 50
0.000000000
 41
0.625
 51
0.000000000
  7
STANDARD
  0
TEXT
  8
1
 62
     4
 10
1941.49804688
 20
71.89433404
 40
30.00000000
  1
Ers. d.:
 50
0.000000000
 41
0.625
 51
0.000000000
  7
STANDARD
  0
TEXT
  8
1
 62
     4
 10
2317.99951172
 20
218.43090820
 40
30.00000000
  1
Blatt
 50
0.000000000
 41
0.625
 51
0.000000000
  7
STANDARD
  0
TEXT
  8
1
 62
     4
 10
2415.18502844
 20
123.00219727
 40
30.00000000
  1
Bl.
 50
0.000000000
 41
0.625
 51
0.000000000
  7
STANDARD
  0
TEXT
  8
1
 62
     4
 10
1649.87369343
 20
663.51965332
 40
30.00000000
  1
1:12
 50
0.000000000
 41
0.812
 51
0.000000000
  7
STANDARD
  0
TEXT
  8
1
 10
1443.54910606
 20
366.00219727
 40
60.00000000
  1
SEITENWAND   H=1800 T=600
 50
0.000000000
 41
0.625
 51
0.000000000
  7
STANDARD
  0
TEXT
  8
1
 62
     4
 10
1012.09790039
 20
429.00219727
 40
24.00000000
  1
06.09.2007
 50
0.000000000
 41
0.625
 51
0.000000000
  7
STANDARD
  0
TEXT
  8
1
 62
     4
 10
1195.74169922
 20
429.00219727
 40
24.00000000
  1
MolnarW
 50
0.000000000
 41
0.625
 51
0.000000000
  7
STANDARD
  0
TEXT
  8
1
 62
     4
 10
1079.59790039
 20
378.00219727
 40
24.00000000
  1
 
 50
0.000000000
 41
0.625
 51
0.000000000
  7
STANDARD
  0
TEXT
  8
1
 62
     4
 10
1079.59790039
 20
327.00219727
 40
24.00000000
  1
 
 50
0.000000000
 41
0.625
 51
0.000000000
  7
STANDARD
  0
TEXT
  8
1
 62
     4
 10
1195.69775391
 20
378.00219727
 40
24.00000000
  1
 
 50
0.000000000
 41
0.625
 51
0.000000000
  7
STANDARD
  0
TEXT
  8
1
 62
     4
 10
1195.69775391
 20
327.00219727
 40
24.00000000
  1
 
 50
0.000000000
 41
0.625
 51
0.000000000
  7
STANDARD
  0
TEXT
  8
1
 10
1442.80590820
 20
166.50219727
 40
42.00000000
  1
0396-7018-60-67
 50
0.000000000
 41
0.812
 51
0.000000000
  7
STANDARD
  0
TEXT
  8
1
 10
1442.80590820
 20
561.73355148
 40
48.00000000
  1
 
 50
0.000000000
 41
0.812
 51
0.000000000
  7
STANDARD
  0
TEXT
  8
1
 62
     4
 10
2372.57409668
 20
174.00219727
 40
30.00000000
  1
 
 50
0.000000000
 41
0.625
 51
0.000000000
  7
STANDARD
  0
TEXT
  8
1
 62
     4
 10
1010.82918985
 20
71.89333834
 40
30.00000000
  1
 
 50
0.000000000
 41
0.625
 51
0.000000000
  7
STANDARD
  0
TEXT
  8
1
 62
     4
 10
1590.69334255
 20
71.89335375
 40
30.00000000
  1
 
 50
0.000000000
 41
0.625
 51
0.000000000
  7
STANDARD
  0
TEXT
  8
1
 62
     4
 10
2121.61304227
 20
71.89336786
 40
30.00000000
  1
 
 50
0.000000000
 41
0.625
 51
0.000000000
  7
STANDARD
  0
TEXT
  8
1
 62
     4
 10
883.74169922
 20
429.00219727
 40
30.00000000
  1
Bearb.
 50
0.000000000
 41
0.625
 51
0.000000000
  7
STANDARD
  0
TEXT
  8
1
 62
     4
 10
2066.77790039
 20
663.51965332
 40
30.00000000
  1
Gewicht:
 50
0.000000000
 41
0.812
 51
0.000000000
  7
STANDARD
  0
TEXT
  8
1
 62
     4
 10
2263.44345877
 20
663.51965332
 40
30.00000000
  1
 
 50
0.000000000
 41
0.812
 51
0.000000000
  7
STANDARD
  0
TEXT
  8
1
 10
1442.89892314
 20
560.46022710
 40
54.00000000
  1
CAD:
 50
0.000000000
 41
0.625
 51
0.000000000
  7
STANDARD
  0
TEXT
  8
1
 10
1624.68812354
 20
560.46022710
 40
54.00000000
  1
C:00056028.SZN
 50
0.000000000
 41
0.625
 51
0.000000000
  7
STANDARD
  0
TEXT
  8
1
 62
     4
 10
277.32080649
 20
174.00419573
 40
30.00000000
  1
 
 50
0.000000000
 41
0.625
 51
0.000000000
  7
STANDARD
  0
TEXT
  8
1
 62
     4
 10
320.24609564
 20
174.00419573
 40
30.00000000
  1
 
 50
0.000000000
 41
0.625
 51
0.000000000
  7
STANDARD
  0
TEXT
  8
1
 62
     4
 10
686.41188082
 20
174.00419573
 40
30.00000000
  1
 
 50
0.000000000
 41
0.438
 51
0.000000000
  7
STANDARD
  0
TEXT
  8
1
 62
     4
 10
812.52282715
 20
174.00419573
 40
30.00000000
  1
 
 50
0.000000000
 41
0.625
 51
0.000000000
  7
STANDARD
  0
TEXT
  8
1
 62
     4
 10
277.32080649
 20
225.00419573
 40
30.00000000
  1
 
 50
0.000000000
 41
0.625
 51
0.000000000
  7
STANDARD
  0
TEXT
  8
1
 62
     4
 10
320.24609564
 20
225.00419573
 40
30.00000000
  1
 
 50
0.000000000
 41
0.625
 51
0.000000000
  7
STANDARD
  0
TEXT
  8
1
 62
     4
 10
686.41188082
 20
225.00419573
 40
30.00000000
  1
 
 50
0.000000000
 41
0.438
 51
0.000000000
  7
STANDARD
  0
TEXT
  8
1
 62
     4
 10
812.52282715
 20
225.00419573
 40
30.00000000
  1
 
 50
0.000000000
 41
0.625
 51
0.000000000
  7
STANDARD
  0
TEXT
  8
1
 62
     4
 10
277.32080649
 20
480.00419573
 40
30.00000000
  1
 
 50
0.000000000
 41
0.625
 51
0.000000000
  7
STANDARD
  0
TEXT
  8
1
 62
     4
 10
320.24609564
 20
480.00419573
 40
30.00000000
  1
 
 50
0.000000000
 41
0.625
 51
0.000000000
  7
STANDARD
  0
TEXT
  8
1
 62
     4
 10
686.41188082
 20
480.00419573
 40
30.00000000
  1
 
 50
0.000000000
 41
0.438
 51
0.000000000
  7
STANDARD
  0
TEXT
  8
1
 62
     4
 10
812.52282715
 20
480.00419573
 40
30.00000000
  1
 
 50
0.000000000
 41
0.625
 51
0.000000000
  7
STANDARD
  0
TEXT
  8
1
 62
     4
 10
277.32080649
 20
123.00419573
 40
30.00000000
  1
 
 50
0.000000000
 41
0.625
 51
0.000000000
  7
STANDARD
  0
TEXT
  8
1
 62
     4
 10
320.24609564
 20
123.00419573
 40
30.00000000
  1
 
 50
0.000000000
 41
0.625
 51
0.000000000
  7
STANDARD
  0
TEXT
  8
1
 62
     4
 10
686.41188082
 20
123.00419573
 40
30.00000000
  1
 
 50
0.000000000
 41
0.438
 51
0.000000000
  7
STANDARD
  0
TEXT
  8
1
 62
     4
 10
812.52282715
 20
123.00419573
 40
30.00000000
  1
 
 50
0.000000000
 41
0.625
 51
0.000000000
  7
STANDARD
  0
TEXT
  8
1
 62
     4
 10
277.32080649
 20
378.00419573
 40
30.00000000
  1
 
 50
0.000000000
 41
0.625
 51
0.000000000
  7
STANDARD
  0
TEXT
  8
1
 62
     4
 10
320.24609564
 20
378.00419573
 40
30.00000000
  1
 
 50
0.000000000
 41
0.625
 51
0.000000000
  7
STANDARD
  0
TEXT
  8
1
 62
     4
 10
686.41188082
 20
378.00419573
 40
30.00000000
  1
 
 50
0.000000000
 41
0.438
 51
0.000000000
  7
STANDARD
  0
TEXT
  8
1
 62
     4
 10
812.52282715
 20
378.00419573
 40
30.00000000
  1
 
 50
0.000000000
 41
0.625
 51
0.000000000
  7
STANDARD
  0
TEXT
  8
1
 62
     4
 10
277.32080649
 20
429.00419573
 40
30.00000000
  1
 
 50
0.000000000
 41
0.625
 51
0.000000000
  7
STANDARD
  0
TEXT
  8
1
 62
     4
 10
320.24609564
 20
429.00419573
 40
30.00000000
  1
 
 50
0.000000000
 41
0.625
 51
0.000000000
  7
STANDARD
  0
TEXT
  8
1
 62
     4
 10
686.41188082
 20
429.00419573
 40
30.00000000
  1
 
 50
0.000000000
 41
0.438
 51
0.000000000
  7
STANDARD
  0
TEXT
  8
1
 62
     4
 10
812.52282715
 20
429.00419573
 40
30.00000000
  1
 
 50
0.000000000
 41
0.625
 51
0.000000000
  7
STANDARD
  0
TEXT
  8
1
 62
     4
 10
277.32080649
 20
276.00419573
 40
30.00000000
  1
 
 50
0.000000000
 41
0.625
 51
0.000000000
  7
STANDARD
  0
TEXT
  8
1
 62
     4
 10
320.24609564
 20
276.00419573
 40
30.00000000
  1
 
 50
0.000000000
 41
0.625
 51
0.000000000
  7
STANDARD
  0
TEXT
  8
1
 62
     4
 10
686.41188082
 20
276.00419573
 40
30.00000000
  1
 
 50
0.000000000
 41
0.438
 51
0.000000000
  7
STANDARD
  0
TEXT
  8
1
 62
     4
 10
812.52282715
 20
276.00419573
 40
30.00000000
  1
 
 50
0.000000000
 41
0.625
 51
0.000000000
  7
STANDARD
  0
TEXT
  8
1
 62
     4
 10
277.32080649
 20
327.00419573
 40
30.00000000
  1
 
 50
0.000000000
 41
0.625
 51
0.000000000
  7
STANDARD
  0
TEXT
  8
1
 62
     4
 10
320.24609564
 20
327.00419573
 40
30.00000000
  1
 
 50
0.000000000
 41
0.625
 51
0.000000000
  7
STANDARD
  0
TEXT
  8
1
 62
     4
 10
686.41188082
 20
327.00419573
 40
30.00000000
  1
 
 50
0.000000000
 41
0.438
 51
0.000000000
  7
STANDARD
  0
TEXT
  8
1
 62
     4
 10
812.52282715
 20
327.00419573
 40
30.00000000
  1
 
 50
0.000000000
 41
0.625
 51
0.000000000
  7
STANDARD
  0
TEXT
  8
2
 10
902.26635261
 20
199.87487728
 40
42.00000000
  1
häwa Fertigungs GmbH
 50
0.000000000
 41
0.471
 51
0.000000000
  7
STANDARD
  0
TEXT
  8
2
 62
     4
 10
902.26635261
 20
137.18801059
 40
30.00000000
  1
Industriestraße 12     D-88489 Wain
 50
0.000000000
 41
0.450
 51
0.000000000
  7
STANDARD
  0
POLYLINE
  8
10
 62
     4
 66
     1
  0
VERTEX
  8
10
 10
429.86693164
 20
564.44556586
  0
VERTEX
  8
10
 10
430.94949664
 20
564.66875256
  0
VERTEX
  8
10
 10
432.03206164
 20
564.91519528
  0
VERTEX
  8
10
 10
432.76608603
 20
565.12060778
  0
VERTEX
  8
10
 10
433.61566468
 20
565.38988783
  0
VERTEX
  8
10
 10
434.42842221
 20
565.67836063
  0
VERTEX
  8
10
 10
435.20538996
 20
565.98428140
  0
VERTEX
  8
10
 10
435.94759938
 20
566.30590531
  0
VERTEX
  8
10
 10
436.65608183
 20
566.64148756
  0
VERTEX
  8
10
 10
437.33186873
 20
566.98928342
  0
VERTEX
  8
10
 10
437.97599147
 20
567.34754803
  0
VERTEX
  8
10
 10
438.58948143
 20
567.71453661
  0
VERTEX
  8
10
 10
439.17337002
 20
568.08850439
  0
VERTEX
  8
10
 10
439.72868862
 20
568.46770653
  0
VERTEX
  8
10
 10
440.25646868
 20
568.85039828
  0
VERTEX
  8
10
 10
440.75774157
 20
569.23483481
  0
VERTEX
  8
10
 10
441.23353867
 20
569.61927136
  0
VERTEX
  8
10
 10
441.68489140
 20
570.00196308
  0
VERTEX
  8
10
 10
442.11283114
 20
570.38116525
  0
VERTEX
  8
10
 10
442.51838931
 20
570.75513303
  0
VERTEX
  8
10
 10
442.90259729
 20
571.12212161
  0
VERTEX
  8
10
 10
443.26648648
 20
571.48038622
  0
VERTEX
  8
10
 10
443.61108828
 20
571.82818205
  0
VERTEX
  8
10
 10
443.93743408
 20
572.16376433
  0
VERTEX
  8
10
 10
444.24655529
 20
572.48538824
  0
VERTEX
  8
10
 10
444.38202193
 20
572.38991781
  0
VERTEX
  8
10
 10
444.35857663
 20
571.90195103
  0
VERTEX
  8
10
 10
444.33928215
 20
571.43132264
  0
VERTEX
  8
10
 10
444.32516946
 20
570.97797670
  0
VERTEX
  8
10
 10
444.31726956
 20
570.54185722
  0
VERTEX
  8
10
 10
444.31661341
 20
570.12290829
  0
VERTEX
  8
10
 10
444.32423201
 20
569.72107396
  0
VERTEX
  8
10
 10
444.34115634
 20
569.33629828
  0
VERTEX
  8
10
 10
444.36841732
 20
568.96852532
  0
VERTEX
  8
10
 10
444.40704601
 20
568.61769911
  0
VERTEX
  8
10
 10
444.45807333
 20
568.28376372
  0
VERTEX
  8
10
 10
444.52253027
 20
567.96666323
  0
VERTEX
  8
10
 10
444.60144781
 20
567.66634165
  0
VERTEX
  8
10
 10
444.69585692
 20
567.38274308
  0
VERTEX
  8
10
 10
444.80678860
 20
567.11581154
  0
VERTEX
  8
10
 10
444.93527382
 20
566.86549107
  0
VERTEX
  8
10
 10
445.08234354
 20
566.63172580
  0
VERTEX
  8
10
 10
445.24902872
 20
566.41445971
  0
VERTEX
  8
10
 10
445.43636039
 20
566.21363688
  0
VERTEX
  8
10
 10
445.64536948
 20
566.02920138
  0
VERTEX
  8
10
 10
445.87708701
 20
565.86109725
  0
VERTEX
  8
10
 10
446.13254391
 20
565.70926855
  0
VERTEX
  8
10
 10
446.41277120
 20
565.57365936
  0
VERTEX
  8
10
 10
446.71879983
 20
565.45421370
  0
VERTEX
  8
10
 10
447.05166080
 20
565.35087562
  0
VERTEX
  8
10
 10
447.41238505
 20
565.26358921
  0
VERTEX
  8
10
 10
447.80200357
 20
565.19229850
  0
VERTEX
  8
10
 10
448.22154736
 20
565.13694756
  0
VERTEX
  8
10
 10
448.67204741
 20
565.09748044
  0
VERTEX
  8
10
 10
449.15453465
 20
565.07384118
  0
VERTEX
  8
10
 10
449.67004006
 20
565.06597387
  0
VERTEX
  8
10
 10
455.21561709
 20
565.06737604
  0
VERTEX
  8
10
 10
455.21561709
 20
566.82432756
  0
VERTEX
  8
10
 10
454.95669667
 20
566.93301259
  0
VERTEX
  8
10
 10
454.71220237
 20
567.04648861
  0
VERTEX
  8
10
 10
454.48170384
 20
567.16518476
  0
VERTEX
  8
10
 10
454.26477084
 20
567.28953002
  0
VERTEX
  8
10
 10
454.06097298
 20
567.41995344
  0
VERTEX
  8
10
 10
453.86987999
 20
567.55688411
  0
VERTEX
  8
10
 10
453.69106156
 20
567.70075106
  0
VERTEX
  8
10
 10
453.52408740
 20
567.85198334
  0
VERTEX
  8
10
 10
453.36852717
 20
568.01100997
  0
VERTEX
  8
10
 10
453.22395055
 20
568.17826003
  0
VERTEX
  8
10
 10
453.08992724
 20
568.35416255
  0
VERTEX
  8
10
 10
452.96602699
 20
568.53914661
  0
VERTEX
  8
10
 10
452.85181938
 20
568.73364122
  0
VERTEX
  8
10
 10
452.74687420
 20
568.93807542
  0
VERTEX
  8
10
 10
452.65076108
 20
569.15287831
  0
VERTEX
  8
10
 10
452.56304976
 20
569.37847888
  0
VERTEX
  8
10
 10
452.48330987
 20
569.61530623
  0
VERTEX
  8
10
 10
452.41111113
 20
569.86378937
  0
VERTEX
  8
10
 10
452.34602322
 20
570.12435739
  0
VERTEX
  8
10
 10
452.28761586
 20
570.39743926
  0
VERTEX
  8
10
 10
452.23545872
 20
570.68346414
  0
VERTEX
  8
10
 10
452.18912147
 20
570.98286097
  0
VERTEX
  8
10
 10
452.14817384
 20
571.29605886
  0
VERTEX
  8
10
 10
452.11218551
 20
571.62348682
  0
VERTEX
  8
10
 10
452.08072614
 20
571.96557396
  0
VERTEX
  8
10
 10
452.05336543
 20
572.32274925
  0
VERTEX
  8
10
 10
452.02967310
 20
572.69544179
  0
VERTEX
  8
10
 10
452.00921883
 20
573.08408063
  0
VERTEX
  8
10
 10
451.99157227
 20
573.48909479
  0
VERTEX
  8
10
 10
451.97630317
 20
573.91091332
  0
VERTEX
  8
10
 10
451.96931782
 20
574.13300246
  0
VERTEX
  8
10
 10
451.83416769
 20
580.07762019
  0
VERTEX
  8
10
 10
452.23961805
 20
597.10852264
  0
VERTEX
  8
10
 10
452.23994164
 20
597.13473370
  0
VERTEX
  8
10
 10
452.23994164
 20
612.94729758
  0
VERTEX
  8
10
 10
452.22691636
 20
613.43082824
  0
VERTEX
  8
10
 10
452.21381920
 20
613.92324647
  0
VERTEX
  8
10
 10
452.19970575
 20
614.42383714
  0
VERTEX
  8
10
 10
452.18363174
 20
614.93188507
  0
VERTEX
  8
10
 10
452.16465282
 20
615.44667501
  0
VERTEX
  8
10
 10
452.14182464
 20
615.96749181
  0
VERTEX
  8
10
 10
452.11420292
 20
616.49362030
  0
VERTEX
  8
10
 10
452.08084332
 20
617.02434528
  0
VERTEX
  8
10
 10
452.04080152
 20
617.55895159
  0
VERTEX
  8
10
 10
451.99313315
 20
618.09672401
  0
VERTEX
  8
10
 10
451.93689393
 20
618.63694736
  0
VERTEX
  8
10
 10
451.87113954
 20
619.17890644
  0
VERTEX
  8
10
 10
451.79492561
 20
619.72188612
  0
VERTEX
  8
10
 10
451.70730785
 20
620.26517116
  0
VERTEX
  8
10
 10
451.60734189
 20
620.80804642
  0
VERTEX
  8
10
 10
451.49408348
 20
621.34979667
  0
VERTEX
  8
10
 10
451.36658821
 20
621.88970674
  0
VERTEX
  8
10
 10
451.22391180
 20
622.42706146
  0
VERTEX
  8
10
 10
451.06510991
 20
622.96114563
  0
VERTEX
  8
10
 10
450.88923825
 20
623.49124408
  0
VERTEX
  8
10
 10
450.69535244
 20
624.01664162
  0
VERTEX
  8
10
 10
450.48250818
 20
624.53662305
  0
VERTEX
  8
10
 10
450.24976113
 20
625.05047318
  0
VERTEX
  8
10
 10
449.99616698
 20
625.55747688
  0
VERTEX
  8
10
 10
449.72078141
 20
626.05691888
  0
VERTEX
  8
10
 10
449.42266007
 20
626.54808408
  0
VERTEX
  8
10
 10
449.10085865
 20
627.03025723
  0
VERTEX
  8
10
 10
448.75443283
 20
627.50272318
  0
VERTEX
  8
10
 10
448.38243826
 20
627.96476672
  0
VERTEX
  8
10
 10
447.98393061
 20
628.41567271
  0
VERTEX
  8
10
 10
447.59233195
 20
628.82760402
  0
VERTEX
  8
10
 10
447.21284805
 20
629.19769295
  0
VERTEX
  8
10
 10
446.81374445
 20
629.55239110
  0
VERTEX
  8
10
 10
446.39590828
 20
629.89189818
  0
VERTEX
  8
10
 10
445.96022664
 20
630.21641387
  0
VERTEX
  8
10
 10
445.50758670
 20
630.52613785
  0
VERTEX
  8
10
 10
445.03887552
 20
630.82126984
  0
VERTEX
  8
10
 10
444.55498028
 20
631.10200954
  0
VERTEX
  8
10
 10
444.05678803
 20
631.36855662
  0
VERTEX
  8
10
 10
443.54518594
 20
631.62111081
  0
VERTEX
  8
10
 10
443.02106111
 20
631.85987179
  0
VERTEX
  8
10
 10
442.48530070
 20
632.08503927
  0
VERTEX
  8
10
 10
441.93879175
 20
632.29681292
  0
VERTEX
  8
10
 10
441.38242147
 20
632.49539244
  0
VERTEX
  8
10
 10
440.81707690
 20
632.68097754
  0
VERTEX
  8
10
 10
440.24364522
 20
632.85376793
  0
VERTEX
  8
10
 10
439.66301350
 20
633.01396327
  0
VERTEX
  8
10
 10
439.07606890
 20
633.16176327
  0
VERTEX
  8
10
 10
438.48369854
 20
633.29736767
  0
VERTEX
  8
10
 10
437.88678949
 20
633.42097610
  0
VERTEX
  8
10
 10
437.28622894
 20
633.53278829
  0
VERTEX
  8
10
 10
436.68290398
 20
633.63300393
  0
VERTEX
  8
10
 10
436.07770170
 20
633.72182273
  0
VERTEX
  8
10
 10
435.47150924
 20
633.79944437
  0
VERTEX
  8
10
 10
434.86521374
 20
633.86606857
  0
VERTEX
  8
10
 10
434.25970229
 20
633.92189500
  0
VERTEX
  8
10
 10
433.65586205
 20
633.96712336
  0
VERTEX
  8
10
 10
433.05458010
 20
634.00195334
  0
VERTEX
  8
10
 10
432.45674357
 20
634.02658467
  0
VERTEX
  8
10
 10
431.86323958
 20
634.04121702
  0
VERTEX
  8
10
 10
431.27495525
 20
634.04605011
  0
VERTEX
  8
10
 10
430.29547732
 20
634.03173895
  0
VERTEX
  8
10
 10
429.27659428
 20
633.98739434
  0
VERTEX
  8
10
 10
428.22336762
 20
633.91089952
  0
VERTEX
  8
10
 10
427.14085889
 20
633.80013774
  0
VERTEX
  8
10
 10
426.03412951
 20
633.65299227
  0
VERTEX
  8
10
 10
424.90824106
 20
633.46734637
  0
VERTEX
  8
10
 10
423.76825503
 20
633.24108330
  0
VERTEX
  8
10
 10
422.61923289
 20
632.97208634
  0
VERTEX
  8
10
 10
421.46623616
 20
632.65823868
  0
VERTEX
  8
10
 10
420.31432637
 20
632.29742363
  0
VERTEX
  8
10
 10
419.16856501
 20
631.88752445
  0
VERTEX
  8
10
 10
418.03401356
 20
631.42642437
  0
VERTEX
  8
10
 10
416.91573356
 20
630.91200668
  0
VERTEX
  8
10
 10
415.81878650
 20
630.34215460
  0
VERTEX
  8
10
 10
414.74823390
 20
629.71475143
  0
VERTEX
  8
10
 10
413.70913720
 20
629.02768042
  0
VERTEX
  8
10
 10
412.70655799
 20
628.27882480
  0
VERTEX
  8
10
 10
411.74555774
 20
627.46606782
  0
VERTEX
  8
10
 10
410.83119794
 20
626.58729279
  0
VERTEX
  8
10
 10
409.96854011
 20
625.64038295
  0
VERTEX
  8
10
 10
409.16264573
 20
624.62322153
  0
VERTEX
  8
10
 10
408.41857634
 20
623.53369180
  0
VERTEX
  8
10
 10
407.74139342
 20
622.36967703
  0
VERTEX
  8
10
 10
407.13615850
 20
621.12906049
  0
VERTEX
  8
10
 10
406.60793309
 20
619.80972538
  0
VERTEX
  8
10
 10
406.16177864
 20
618.40955504
  0
VERTEX
  8
10
 10
405.80275669
 20
616.92643268
  0
VERTEX
  8
10
 10
405.53592873
 20
615.35824155
  0
VERTEX
  8
10
 10
405.36635629
 20
613.70286493
  0
VERTEX
  8
10
 10
405.29910086
 20
611.95818606
  0
VERTEX
  8
10
 10
405.31189363
 20
611.05169682
  0
VERTEX
  8
10
 10
413.41891325
 20
611.05169682
  0
VERTEX
  8
10
 10
413.43298194
 20
611.51422630
  0
VERTEX
  8
10
 10
413.45051583
 20
612.02062899
  0
VERTEX
  8
10
 10
413.47500576
 20
612.56681545
  0
VERTEX
  8
10
 10
413.50994259
 20
613.14869630
  0
VERTEX
  8
10
 10
413.55881716
 20
613.76218210
  0
VERTEX
  8
10
 10
413.62512034
 20
614.40318348
  0
VERTEX
  8
10
 10
413.71234298
 20
615.06761095
  0
VERTEX
  8
10
 10
413.82397593
 20
615.75137514
  0
VERTEX
  8
10
 10
413.96351004
 20
616.45038661
  0
VERTEX
  8
10
 10
414.13443614
 20
617.16055598
  0
VERTEX
  8
10
 10
414.34024511
 20
617.87779377
  0
VERTEX
  8
10
 10
414.58442781
 20
618.59801064
  0
VERTEX
  8
10
 10
414.87047509
 20
619.31711714
  0
VERTEX
  8
10
 10
415.20187777
 20
620.03102384
  0
VERTEX
  8
10
 10
415.58212673
 20
620.73564132
  0
VERTEX
  8
10
 10
416.01471281
 20
621.42688021
  0
VERTEX
  8
10
 10
416.50312687
 20
622.10065105
  0
VERTEX
  8
10
 10
417.05085976
 20
622.75286442
  0
VERTEX
  8
10
 10
417.66140231
 20
623.37943093
  0
VERTEX
  8
10
 10
418.33824542
 20
623.97626117
  0
VERTEX
  8
10
 10
419.08487993
 20
624.53926570
  0
VERTEX
  8
10
 10
419.90479665
 20
625.06435510
  0
VERTEX
  8
10
 10
420.80148648
 20
625.54743998
  0
VERTEX
  8
10
 10
421.77844025
 20
625.98443091
  0
VERTEX
  8
10
 10
422.83914881
 20
626.37123845
  0
VERTEX
  8
10
 10
423.98710302
 20
626.70377324
  0
VERTEX
  8
10
 10
425.22579372
 20
626.97794581
  0
VERTEX
  8
10
 10
426.55871178
 20
627.18966675
  0
VERTEX
  8
10
 10
427.98934805
 20
627.33484668
  0
VERTEX
  8
10
 10
429.52119337
 20
627.40939615
  0
VERTEX
  8
10
 10
431.00014945
 20
627.41154557
  0
VERTEX
  8
10
 10
432.28222255
 20
627.35362312
  0
VERTEX
  8
10
 10
433.47890144
 20
627.24024488
  0
VERTEX
  8
10
 10
434.59316126
 20
627.07398466
  0
VERTEX
  8
10
 10
435.62797715
 20
626.85741635
  0
VERTEX
  8
10
 10
436.58632431
 20
626.59311382
  0
VERTEX
  8
10
 10
437.47117784
 20
626.28365095
  0
VERTEX
  8
10
 10
438.28551291
 20
625.93160159
  0
VERTEX
  8
10
 10
439.03230467
 20
625.53953962
  0
VERTEX
  8
10
 10
439.71452830
 20
625.11003888
  0
VERTEX
  8
10
 10
440.33515894
 20
624.64567329
  0
VERTEX
  8
10
 10
440.89717173
 20
624.14901666
  0
VERTEX
  8
10
 10
441.40354182
 20
623.62264290
  0
VERTEX
  8
10
 10
441.85724441
 20
623.06912586
  0
VERTEX
  8
10
 10
442.26125461
 20
622.49103941
  0
VERTEX
  8
10
 10
442.61854756
 20
621.89095741
  0
VERTEX
  8
10
 10
442.93209843
 20
621.27145372
  0
VERTEX
  8
10
 10
443.20488241
 20
620.63510224
  0
VERTEX
  8
10
 10
443.43987462
 20
619.98447681
  0
VERTEX
  8
10
 10
443.64005018
 20
619.32215130
  0
VERTEX
  8
10
 10
443.80838431
 20
618.65069957
  0
VERTEX
  8
10
 10
443.94785214
 20
617.97269552
  0
VERTEX
  8
10
 10
444.06142879
 20
617.29071297
  0
VERTEX
  8
10
 10
444.15208946
 20
616.60732583
  0
VERTEX
  8
10
 10
444.22280927
 20
615.92510797
  0
VERTEX
  8
10
 10
444.27656339
 20
615.24663322
  0
VERTEX
  8
10
 10
444.31632698
 20
614.57447546
  0
VERTEX
  8
10
 10
444.34507517
 20
613.91120858
  0
VERTEX
  8
10
 10
444.36578314
 20
613.25940641
  0
VERTEX
  8
10
 10
444.38142603
 20
612.62164283
  0
VERTEX
  8
10
 10
444.39497899
 20
612.00049175
  0
VERTEX
  8
10
 10
444.38548750
 20
605.64228666
  0
VERTEX
  8
10
 10
432.49227705
 20
604.28879799
  0
VERTEX
  8
10
 10
432.03206164
 20
604.23110851
  0
VERTEX
  8
10
 10
429.87237493
 20
603.96455538
  0
VERTEX
  8
10
 10
427.70180164
 20
603.65737293
  0
VERTEX
  8
10
 10
427.50579542
 20
603.62953704
  0
VERTEX
  8
10
 10
426.70129469
 20
603.51051156
  0
VERTEX
  8
10
 10
425.90530338
 20
603.38727155
  0
VERTEX
  8
10
 10
425.11816479
 20
603.25921673
  0
VERTEX
  8
10
 10
424.34022210
 20
603.12574686
  0
VERTEX
  8
10
 10
423.57181861
 20
602.98626168
  0
VERTEX
  8
10
 10
422.81329751
 20
602.84016095
  0
VERTEX
  8
10
 10
422.06500205
 20
602.68684446
  0
VERTEX
  8
10
 10
421.32727546
 20
602.52571194
  0
VERTEX
  8
10
 10
420.60046100
 20
602.35616312
  0
VERTEX
  8
10
 10
419.88490191
 20
602.17759777
  0
VERTEX
  8
10
 10
419.18094141
 20
601.98941567
  0
VERTEX
  8
10
 10
418.48892273
 20
601.79101653
  0
VERTEX
  8
10
 10
417.80918915
 20
601.58180013
  0
VERTEX
  8
10
 10
417.14208387
 20
601.36116619
  0
VERTEX
  8
10
 10
416.48795015
 20
601.12851452
  0
VERTEX
  8
10
 10
415.84713122
 20
600.88324484
  0
VERTEX
  8
10
 10
415.21997031
 20
600.62475690
  0
VERTEX
  8
10
 10
414.60681067
 20
600.35245046
  0
VERTEX
  8
10
 10
414.00799552
 20
600.06572527
  0
VERTEX
  8
10
 10
413.42386813
 20
599.76398109
  0
VERTEX
  8
10
 10
412.85477174
 20
599.44661769
  0
VERTEX
  8
10
 10
412.30104953
 20
599.11303478
  0
VERTEX
  8
10
 10
411.76304480
 20
598.76263213
  0
VERTEX
  8
10
 10
411.24110075
 20
598.39480951
  0
VERTEX
  8
10
 10
410.82586932
 20
598.08901926
  0
VERTEX
  8
10
 10
410.50105375
 20
597.84621266
  0
VERTEX
  8
10
 10
410.17176181
 20
597.58665889
  0
VERTEX
  8
10
 10
409.83908038
 20
597.31024353
  0
VERTEX
  8
10
 10
409.50409637
 20
597.01685216
  0
VERTEX
  8
10
 10
409.16789674
 20
596.70637038
  0
VERTEX
  8
10
 10
408.83156842
 20
596.37868379
  0
VERTEX
  8
10
 10
408.49619827
 20
596.03367795
  0
VERTEX
  8
10
 10
408.16287328
 20
595.67123847
  0
VERTEX
  8
10
 10
407.83268033
 20
595.29125091
  0
VERTEX
  8
10
 10
407.50670635
 20
594.89360089
  0
VERTEX
  8
10
 10
407.18603824
 20
594.47817399
  0
VERTEX
  8
10
 10
406.87176298
 20
594.04485575
  0
VERTEX
  8
10
 10
406.56496744
 20
593.59353183
  0
VERTEX
  8
10
 10
406.26673857
 20
593.12408777
  0
VERTEX
  8
10
 10
405.97816326
 20
592.63640918
  0
VERTEX
  8
10
 10
405.70032846
 20
592.13038164
  0
VERTEX
  8
10
 10
405.43432108
 20
591.60589070
  0
VERTEX
  8
10
 10
405.18122807
 20
591.06282203
  0
VERTEX
  8
10
 10
404.94213631
 20
590.50106115
  0
VERTEX
  8
10
 10
404.71813274
 20
589.92049367
  0
VERTEX
  8
10
 10
404.51030425
 20
589.32100514
  0
VERTEX
  8
10
 10
404.31973782
 20
588.70248122
  0
VERTEX
  8
10
 10
404.14752035
 20
588.06480745
  0
VERTEX
  8
10
 10
403.99473873
 20
587.40786943
  0
VERTEX
  8
10
 10
403.86247992
 20
586.73155270
  0
VERTEX
  8
10
 10
403.75183083
 20
586.03574294
  0
VERTEX
  8
10
 10
403.66387837
 20
585.32032568
  0
VERTEX
  8
10
 10
403.59970949
 20
584.58518647
  0
VERTEX
  8
10
 10
403.56041106
 20
583.83021098
  0
VERTEX
  8
10
 10
403.54707007
 20
583.05528477
  0
VERTEX
  8
10
 10
403.55315302
 20
582.54937042
  0
VERTEX
  8
10
 10
403.57130651
 20
582.04304134
  0
VERTEX
  8
10
 10
403.60138753
 20
581.53675520
  0
VERTEX
  8
10
 10
403.64325309
 20
581.03096957
  0
VERTEX
  8
10
 10
403.69676015
 20
580.52614217
  0
VERTEX
  8
10
 10
403.76176566
 20
580.02273063
  0
VERTEX
  8
10
 10
403.83812668
 20
579.52119258
  0
VERTEX
  8
10
 10
403.92570015
 20
579.02198572
  0
VERTEX
  8
10
 10
404.02434304
 20
578.52556762
  0
VERTEX
  8
10
 10
404.13391236
 20
578.03239605
  0
VERTEX
  8
10
 10
404.25426510
 20
577.54292854
  0
VERTEX
  8
10
 10
404.38525824
 20
577.05762282
  0
VERTEX
  8
10
 10
404.52674873
 20
576.57693651
  0
VERTEX
  8
10
 10
404.67859357
 20
576.10132728
  0
VERTEX
  8
10
 10
404.84064977
 20
575.63125276
  0
VERTEX
  8
10
 10
405.01277428
 20
575.16717062
  0
VERTEX
  8
10
 10
405.19482413
 20
574.70953850
  0
VERTEX
  8
10
 10
405.38665624
 20
574.25881403
  0
VERTEX
  8
10
 10
405.58812764
 20
573.81545491
  0
VERTEX
  8
10
 10
405.79909531
 20
573.37991874
  0
VERTEX
  8
10
 10
406.01941623
 20
572.95266322
  0
VERTEX
  8
10
 10
406.24894738
 20
572.53414596
  0
VERTEX
  8
10
 10
406.48754574
 20
572.12482464
  0
VERTEX
  8
10
 10
406.73506828
 20
571.72515691
  0
VERTEX
  8
10
 10
406.99137201
 20
571.33560040
  0
VERTEX
  8
10
 10
407.25631392
 20
570.95661275
  0
VERTEX
  8
10
 10
407.52975099
 20
570.58865168
  0
VERTEX
  8
10
 10
407.81154017
 20
570.23217475
  0
VERTEX
  8
10
 10
408.10153849
 20
569.88763969
  0
VERTEX
  8
10
 10
408.39960290
 20
569.55550410
  0
VERTEX
  8
10
 10
408.77908663
 20
569.14524958
  0
VERTEX
  8
10
 10
409.24208709
 20
568.66973331
  0
VERTEX
  8
10
 10
409.71506799
 20
568.22337799
  0
VERTEX
  8
10
 10
410.19711358
 20
567.80526835
  0
VERTEX
  8
10
 10
410.68730813
 20
567.41448906
  0
VERTEX
  8
10
 10
411.18473595
 20
567.05012481
  0
VERTEX
  8
10
 10
411.68848128
 20
566.71126032
  0
VERTEX
  8
10
 10
412.19762840
 20
566.39698027
  0
VERTEX
  8
10
 10
412.71126158
 20
566.10636939
  0
VERTEX
  8
10
 10
413.22846512
 20
565.83851232
  0
VERTEX
  8
10
 10
413.74832331
 20
565.59249382
  0
VERTEX
  8
10
 10
414.26992039
 20
565.36739857
  0
VERTEX
  8
10
 10
414.79234066
 20
565.16231125
  0
VERTEX
  8
10
 10
415.31466840
 20
564.97631656
  0
VERTEX
  8
10
 10
415.83598785
 20
564.80849918
  0
VERTEX
  8
10
 10
416.35538334
 20
564.65794387
  0
VERTEX
  8
10
 10
416.87193910
 20
564.52373528
  0
VERTEX
  8
10
 10
417.38473943
 20
564.40495810
  0
VERTEX
  8
10
 10
417.89286862
 20
564.30069704
  0
VERTEX
  8
10
 10
418.39541091
 20
564.21003684
  0
VERTEX
  8
10
 10
418.89145063
 20
564.13206211
  0
VERTEX
  8
10
 10
419.38007200
 20
564.06585763
  0
VERTEX
  8
10
 10
419.86035935
 20
564.01050804
  0
VERTEX
  8
10
 10
420.33139689
 20
563.96509808
  0
VERTEX
  8
10
 10
420.79226898
 20
563.92871244
  0
VERTEX
  8
10
 10
421.24205984
 20
563.90043578
  0
VERTEX
  8
10
 10
421.67985374
 20
563.87935284
  0
VERTEX
  8
10
 10
422.10473498
 20
563.86454832
  0
VERTEX
  8
10
 10
422.51578786
 20
563.85510688
  0
VERTEX
  8
10
 10
422.91209663
 20
563.85011322
  0
VERTEX
  8
10
 10
423.29274554
 20
563.84865208
  0
VERTEX
  8
10
 10
424.52012748
 20
563.86668163
  0
VERTEX
  8
10
 10
425.70140567
 20
563.91960708
  0
VERTEX
  8
10
 10
426.83761153
 20
564.00568364
  0
VERTEX
  8
10
 10
427.70180164
 20
564.09864353
  0
VERTEX
  8
10
 10
428.78436664
 20
564.26047669
  0
VERTEX
  8
10
 10
429.86693164
 20
564.44556586
  0
SEQEND
  8
10
  0
POLYLINE
  8
10
 62
     4
 66
     1
  0
VERTEX
  8
10
 10
591.03228331
 20
564.44556586
  0
VERTEX
  8
10
 10
592.11484831
 20
564.66875256
  0
VERTEX
  8
10
 10
593.19741331
 20
564.91519528
  0
VERTEX
  8
10
 10
593.93143770
 20
565.12060778
  0
VERTEX
  8
10
 10
594.78101635
 20
565.38988783
  0
VERTEX
  8
10
 10
595.59377388
 20
565.67836063
  0
VERTEX
  8
10
 10
596.37074163
 20
565.98428140
  0
VERTEX
  8
10
 10
597.11295106
 20
566.30590531
  0
VERTEX
  8
10
 10
597.82143350
 20
566.64148756
  0
VERTEX
  8
10
 10
598.49722040
 20
566.98928342
  0
VERTEX
  8
10
 10
599.14134314
 20
567.34754803
  0
VERTEX
  8
10
 10
599.75483310
 20
567.71453661
  0
VERTEX
  8
10
 10
600.33872169
 20
568.08850439
  0
VERTEX
  8
10
 10
600.89404029
 20
568.46770653
  0
VERTEX
  8
10
 10
601.42182035
 20
568.85039828
  0
VERTEX
  8
10
 10
601.92309324
 20
569.23483481
  0
VERTEX
  8
10
 10
602.39889034
 20
569.61927136
  0
VERTEX
  8
10
 10
602.85024307
 20
570.00196308
  0
VERTEX
  8
10
 10
603.27818281
 20
570.38116525
  0
VERTEX
  8
10
 10
603.68374099
 20
570.75513303
  0
VERTEX
  8
10
 10
604.06794896
 20
571.12212161
  0
VERTEX
  8
10
 10
604.43183815
 20
571.48038622
  0
VERTEX
  8
10
 10
604.77643995
 20
571.82818205
  0
VERTEX
  8
10
 10
605.10278575
 20
572.16376433
  0
VERTEX
  8
10
 10
605.41190696
 20
572.48538824
  0
VERTEX
  8
10
 10
605.54737360
 20
572.38991781
  0
VERTEX
  8
10
 10
605.52392830
 20
571.90195103
  0
VERTEX
  8
10
 10
605.50463382
 20
571.43132264
  0
VERTEX
  8
10
 10
605.49052113
 20
570.97797670
  0
VERTEX
  8
10
 10
605.48262123
 20
570.54185722
  0
VERTEX
  8
10
 10
605.48196508
 20
570.12290829
  0
VERTEX
  8
10
 10
605.48958368
 20
569.72107396
  0
VERTEX
  8
10
 10
605.50650801
 20
569.33629828
  0
VERTEX
  8
10
 10
605.53376899
 20
568.96852532
  0
VERTEX
  8
10
 10
605.57239768
 20
568.61769911
  0
VERTEX
  8
10
 10
605.62342501
 20
568.28376372
  0
VERTEX
  8
10
 10
605.68788194
 20
567.96666323
  0
VERTEX
  8
10
 10
605.76679948
 20
567.66634165
  0
VERTEX
  8
10
 10
605.86120859
 20
567.38274308
  0
VERTEX
  8
10
 10
605.97214027
 20
567.11581154
  0
VERTEX
  8
10
 10
606.10062549
 20
566.86549107
  0
VERTEX
  8
10
 10
606.24769521
 20
566.63172580
  0
VERTEX
  8
10
 10
606.41438040
 20
566.41445971
  0
VERTEX
  8
10
 10
606.60171206
 20
566.21363688
  0
VERTEX
  8
10
 10
606.81072115
 20
566.02920138
  0
VERTEX
  8
10
 10
607.04243868
 20
565.86109725
  0
VERTEX
  8
10
 10
607.29789558
 20
565.70926855
  0
VERTEX
  8
10
 10
607.57812287
 20
565.57365936
  0
VERTEX
  8
10
 10
607.88415150
 20
565.45421370
  0
VERTEX
  8
10
 10
608.21701247
 20
565.35087562
  0
VERTEX
  8
10
 10
608.57773672
 20
565.26358921
  0
VERTEX
  8
10
 10
608.96735524
 20
565.19229850
  0
VERTEX
  8
10
 10
609.38689904
 20
565.13694756
  0
VERTEX
  8
10
 10
609.83739908
 20
565.09748044
  0
VERTEX
  8
10
 10
610.31988632
 20
565.07384118
  0
VERTEX
  8
10
 10
610.83539173
 20
565.06597387
  0
VERTEX
  8
10
 10
616.38096876
 20
565.06737604
  0
VERTEX
  8
10
 10
616.38096876
 20
566.82432756
  0
VERTEX
  8
10
 10
616.12204834
 20
566.93301259
  0
VERTEX
  8
10
 10
615.87755404
 20
567.04648861
  0
VERTEX
  8
10
 10
615.64705551
 20
567.16518476
  0
VERTEX
  8
10
 10
615.43012251
 20
567.28953002
  0
VERTEX
  8
10
 10
615.22632465
 20
567.41995344
  0
VERTEX
  8
10
 10
615.03523166
 20
567.55688411
  0
VERTEX
  8
10
 10
614.85641323
 20
567.70075106
  0
VERTEX
  8
10
 10
614.68943907
 20
567.85198334
  0
VERTEX
  8
10
 10
614.53387884
 20
568.01100997
  0
VERTEX
  8
10
 10
614.38930222
 20
568.17826003
  0
VERTEX
  8
10
 10
614.25527892
 20
568.35416255
  0
VERTEX
  8
10
 10
614.13137866
 20
568.53914661
  0
VERTEX
  8
10
 10
614.01717105
 20
568.73364122
  0
VERTEX
  8
10
 10
613.91222587
 20
568.93807542
  0
VERTEX
  8
10
 10
613.81611275
 20
569.15287831
  0
VERTEX
  8
10
 10
613.72840143
 20
569.37847888
  0
VERTEX
  8
10
 10
613.64866154
 20
569.61530623
  0
VERTEX
  8
10
 10
613.57646280
 20
569.86378937
  0
VERTEX
  8
10
 10
613.51137489
 20
570.12435739
  0
VERTEX
  8
10
 10
613.45296753
 20
570.39743926
  0
VERTEX
  8
10
 10
613.40081039
 20
570.68346414
  0
VERTEX
  8
10
 10
613.35447314
 20
570.98286097
  0
VERTEX
  8
10
 10
613.31352551
 20
571.29605886
  0
VERTEX
  8
10
 10
613.27753718
 20
571.62348682
  0
VERTEX
  8
10
 10
613.24607782
 20
571.96557396
  0
VERTEX
  8
10
 10
613.21871710
 20
572.32274925
  0
VERTEX
  8
10
 10
613.19502477
 20
572.69544179
  0
VERTEX
  8
10
 10
613.17457050
 20
573.08408063
  0
VERTEX
  8
10
 10
613.15692394
 20
573.48909479
  0
VERTEX
  8
10
 10
613.14165484
 20
573.91091332
  0
VERTEX
  8
10
 10
613.13466949
 20
574.13300246
  0
VERTEX
  8
10
 10
612.99951936
 20
580.07762019
  0
VERTEX
  8
10
 10
613.40496972
 20
597.10852264
  0
VERTEX
  8
10
 10
613.40529331
 20
597.13473370
  0
VERTEX
  8
10
 10
613.40529331
 20
612.94729758
  0
VERTEX
  8
10
 10
613.39226803
 20
613.43082824
  0
VERTEX
  8
10
 10
613.37917087
 20
613.92324647
  0
VERTEX
  8
10
 10
613.36505742
 20
614.42383714
  0
VERTEX
  8
10
 10
613.34898341
 20
614.93188507
  0
VERTEX
  8
10
 10
613.33000449
 20
615.44667501
  0
VERTEX
  8
10
 10
613.30717631
 20
615.96749181
  0
VERTEX
  8
10
 10
613.27955459
 20
616.49362030
  0
VERTEX
  8
10
 10
613.24619499
 20
617.02434528
  0
VERTEX
  8
10
 10
613.20615319
 20
617.55895159
  0
VERTEX
  8
10
 10
613.15848483
 20
618.09672401
  0
VERTEX
  8
10
 10
613.10224560
 20
618.63694736
  0
VERTEX
  8
10
 10
613.03649121
 20
619.17890644
  0
VERTEX
  8
10
 10
612.96027728
 20
619.72188612
  0
VERTEX
  8
10
 10
612.87265952
 20
620.26517116
  0
VERTEX
  8
10
 10
612.77269356
 20
620.80804642
  0
VERTEX
  8
10
 10
612.65943515
 20
621.34979667
  0
VERTEX
  8
10
 10
612.53193988
 20
621.88970674
  0
VERTEX
  8
10
 10
612.38926347
 20
622.42706146
  0
VERTEX
  8
10
 10
612.23046158
 20
622.96114563
  0
VERTEX
  8
10
 10
612.05458992
 20
623.49124408
  0
VERTEX
  8
10
 10
611.86070411
 20
624.01664162
  0
VERTEX
  8
10
 10
611.64785985
 20
624.53662305
  0
VERTEX
  8
10
 10
611.41511280
 20
625.05047318
  0
VERTEX
  8
10
 10
611.16151865
 20
625.55747688
  0
VERTEX
  8
10
 10
610.88613308
 20
626.05691888
  0
VERTEX
  8
10
 10
610.58801174
 20
626.54808408
  0
VERTEX
  8
10
 10
610.26621032
 20
627.03025723
  0
VERTEX
  8
10
 10
609.91978450
 20
627.50272318
  0
VERTEX
  8
10
 10
609.54778993
 20
627.96476672
  0
VERTEX
  8
10
 10
609.14928228
 20
628.41567271
  0
VERTEX
  8
10
 10
608.75768362
 20
628.82760402
  0
VERTEX
  8
10
 10
608.37819973
 20
629.19769295
  0
VERTEX
  8
10
 10
607.97909612
 20
629.55239110
  0
VERTEX
  8
10
 10
607.56125995
 20
629.89189818
  0
VERTEX
  8
10
 10
607.12557831
 20
630.21641387
  0
VERTEX
  8
10
 10
606.67293837
 20
630.52613785
  0
VERTEX
  8
10
 10
606.20422719
 20
630.82126984
  0
VERTEX
  8
10
 10
605.72033195
 20
631.10200954
  0
VERTEX
  8
10
 10
605.22213970
 20
631.36855662
  0
VERTEX
  8
10
 10
604.71053761
 20
631.62111081
  0
VERTEX
  8
10
 10
604.18641278
 20
631.85987179
  0
VERTEX
  8
10
 10
603.65065237
 20
632.08503927
  0
VERTEX
  8
10
 10
603.10414342
 20
632.29681292
  0
VERTEX
  8
10
 10
602.54777314
 20
632.49539244
  0
VERTEX
  8
10
 10
601.98242857
 20
632.68097754
  0
VERTEX
  8
10
 10
601.40899689
 20
632.85376793
  0
VERTEX
  8
10
 10
600.82836517
 20
633.01396327
  0
VERTEX
  8
10
 10
600.24142057
 20
633.16176327
  0
VERTEX
  8
10
 10
599.64905021
 20
633.29736767
  0
VERTEX
  8
10
 10
599.05214117
 20
633.42097610
  0
VERTEX
  8
10
 10
598.45158061
 20
633.53278829
  0
VERTEX
  8
10
 10
597.84825565
 20
633.63300393
  0
VERTEX
  8
10
 10
597.24305337
 20
633.72182273
  0
VERTEX
  8
10
 10
596.63686091
 20
633.79944437
  0
VERTEX
  8
10
 10
596.03056541
 20
633.86606857
  0
VERTEX
  8
10
 10
595.42505396
 20
633.92189500
  0
VERTEX
  8
10
 10
594.82121372
 20
633.96712336
  0
VERTEX
  8
10
 10
594.21993177
 20
634.00195334
  0
VERTEX
  8
10
 10
593.62209524
 20
634.02658467
  0
VERTEX
  8
10
 10
593.02859125
 20
634.04121702
  0
VERTEX
  8
10
 10
592.44030692
 20
634.04605011
  0
VERTEX
  8
10
 10
591.46082899
 20
634.03173895
  0
VERTEX
  8
10
 10
590.44194595
 20
633.98739434
  0
VERTEX
  8
10
 10
589.38871929
 20
633.91089952
  0
VERTEX
  8
10
 10
588.30621056
 20
633.80013774
  0
VERTEX
  8
10
 10
587.19948118
 20
633.65299227
  0
VERTEX
  8
10
 10
586.07359274
 20
633.46734637
  0
VERTEX
  8
10
 10
584.93360670
 20
633.24108330
  0
VERTEX
  8
10
 10
583.78458456
 20
632.97208634
  0
VERTEX
  8
10
 10
582.63158783
 20
632.65823868
  0
VERTEX
  8
10
 10
581.47967804
 20
632.29742363
  0
VERTEX
  8
10
 10
580.33391668
 20
631.88752445
  0
VERTEX
  8
10
 10
579.19936523
 20
631.42642437
  0
VERTEX
  8
10
 10
578.08108523
 20
630.91200668
  0
VERTEX
  8
10
 10
576.98413817
 20
630.34215460
  0
VERTEX
  8
10
 10
575.91358557
 20
629.71475143
  0
VERTEX
  8
10
 10
574.87448887
 20
629.02768042
  0
VERTEX
  8
10
 10
573.87190966
 20
628.27882480
  0
VERTEX
  8
10
 10
572.91090941
 20
627.46606782
  0
VERTEX
  8
10
 10
571.99654961
 20
626.58729279
  0
VERTEX
  8
10
 10
571.13389178
 20
625.64038295
  0
VERTEX
  8
10
 10
570.32799740
 20
624.62322153
  0
VERTEX
  8
10
 10
569.58392801
 20
623.53369180
  0
VERTEX
  8
10
 10
568.90674510
 20
622.36967703
  0
VERTEX
  8
10
 10
568.30151017
 20
621.12906049
  0
VERTEX
  8
10
 10
567.77328476
 20
619.80972538
  0
VERTEX
  8
10
 10
567.32713031
 20
618.40955504
  0
VERTEX
  8
10
 10
566.96810836
 20
616.92643268
  0
VERTEX
  8
10
 10
566.70128040
 20
615.35824155
  0
VERTEX
  8
10
 10
566.53170796
 20
613.70286493
  0
VERTEX
  8
10
 10
566.46445253
 20
611.95818606
  0
VERTEX
  8
10
 10
566.47724530
 20
611.05169682
  0
VERTEX
  8
10
 10
574.58426492
 20
611.05169682
  0
VERTEX
  8
10
 10
574.59833361
 20
611.51422630
  0
VERTEX
  8
10
 10
574.61586750
 20
612.02062899
  0
VERTEX
  8
10
 10
574.64035743
 20
612.56681545
  0
VERTEX
  8
10
 10
574.67529426
 20
613.14869630
  0
VERTEX
  8
10
 10
574.72416883
 20
613.76218210
  0
VERTEX
  8
10
 10
574.79047201
 20
614.40318348
  0
VERTEX
  8
10
 10
574.87769465
 20
615.06761095
  0
VERTEX
  8
10
 10
574.98932760
 20
615.75137514
  0
VERTEX
  8
10
 10
575.12886171
 20
616.45038661
  0
VERTEX
  8
10
 10
575.29978781
 20
617.16055598
  0
VERTEX
  8
10
 10
575.50559679
 20
617.87779377
  0
VERTEX
  8
10
 10
575.74977948
 20
618.59801064
  0
VERTEX
  8
10
 10
576.03582676
 20
619.31711714
  0
VERTEX
  8
10
 10
576.36722944
 20
620.03102384
  0
VERTEX
  8
10
 10
576.74747840
 20
620.73564132
  0
VERTEX
  8
10
 10
577.18006448
 20
621.42688021
  0
VERTEX
  8
10
 10
577.66847854
 20
622.10065105
  0
VERTEX
  8
10
 10
578.21621143
 20
622.75286442
  0
VERTEX
  8
10
 10
578.82675398
 20
623.37943093
  0
VERTEX
  8
10
 10
579.50359709
 20
623.97626117
  0
VERTEX
  8
10
 10
580.25023160
 20
624.53926570
  0
VERTEX
  8
10
 10
581.07014832
 20
625.06435510
  0
VERTEX
  8
10
 10
581.96683815
 20
625.54743998
  0
VERTEX
  8
10
 10
582.94379192
 20
625.98443091
  0
VERTEX
  8
10
 10
584.00450048
 20
626.37123845
  0
VERTEX
  8
10
 10
585.15245469
 20
626.70377324
  0
VERTEX
  8
10
 10
586.39114540
 20
626.97794581
  0
VERTEX
  8
10
 10
587.72406345
 20
627.18966675
  0
VERTEX
  8
10
 10
589.15469972
 20
627.33484668
  0
VERTEX
  8
10
 10
590.68654504
 20
627.40939615
  0
VERTEX
  8
10
 10
592.16550112
 20
627.41154557
  0
VERTEX
  8
10
 10
593.44757422
 20
627.35362312
  0
VERTEX
  8
10
 10
594.64425311
 20
627.24024488
  0
VERTEX
  8
10
 10
595.75851293
 20
627.07398466
  0
VERTEX
  8
10
 10
596.79332882
 20
626.85741635
  0
VERTEX
  8
10
 10
597.75167598
 20
626.59311382
  0
VERTEX
  8
10
 10
598.63652951
 20
626.28365095
  0
VERTEX
  8
10
 10
599.45086458
 20
625.93160159
  0
VERTEX
  8
10
 10
600.19765634
 20
625.53953962
  0
VERTEX
  8
10
 10
600.87987997
 20
625.11003888
  0
VERTEX
  8
10
 10
601.50051061
 20
624.64567329
  0
VERTEX
  8
10
 10
602.06252340
 20
624.14901666
  0
VERTEX
  8
10
 10
602.56889349
 20
623.62264290
  0
VERTEX
  8
10
 10
603.02259608
 20
623.06912586
  0
VERTEX
  8
10
 10
603.42660628
 20
622.49103941
  0
VERTEX
  8
10
 10
603.78389924
 20
621.89095741
  0
VERTEX
  8
10
 10
604.09745010
 20
621.27145372
  0
VERTEX
  8
10
 10
604.37023408
 20
620.63510224
  0
VERTEX
  8
10
 10
604.60522629
 20
619.98447681
  0
VERTEX
  8
10
 10
604.80540185
 20
619.32215130
  0
VERTEX
  8
10
 10
604.97373598
 20
618.65069957
  0
VERTEX
  8
10
 10
605.11320381
 20
617.97269552
  0
VERTEX
  8
10
 10
605.22678046
 20
617.29071297
  0
VERTEX
  8
10
 10
605.31744113
 20
616.60732583
  0
VERTEX
  8
10
 10
605.38816094
 20
615.92510797
  0
VERTEX
  8
10
 10
605.44191506
 20
615.24663322
  0
VERTEX
  8
10
 10
605.48167865
 20
614.57447546
  0
VERTEX
  8
10
 10
605.51042684
 20
613.91120858
  0
VERTEX
  8
10
 10
605.53113481
 20
613.25940641
  0
VERTEX
  8
10
 10
605.54677770
 20
612.62164283
  0
VERTEX
  8
10
 10
605.56033066
 20
612.00049175
  0
VERTEX
  8
10
 10
605.55083917
 20
605.64228666
  0
VERTEX
  8
10
 10
593.65762872
 20
604.28879799
  0
VERTEX
  8
10
 10
593.19741331
 20
604.23110851
  0
VERTEX
  8
10
 10
591.03772660
 20
603.96455538
  0
VERTEX
  8
10
 10
588.86715331
 20
603.65737293
  0
VERTEX
  8
10
 10
588.67114709
 20
603.62953704
  0
VERTEX
  8
10
 10
587.86664636
 20
603.51051156
  0
VERTEX
  8
10
 10
587.07065505
 20
603.38727155
  0
VERTEX
  8
10
 10
586.28351647
 20
603.25921673
  0
VERTEX
  8
10
 10
585.50557377
 20
603.12574686
  0
VERTEX
  8
10
 10
584.73717028
 20
602.98626168
  0
VERTEX
  8
10
 10
583.97864918
 20
602.84016095
  0
VERTEX
  8
10
 10
583.23035372
 20
602.68684446
  0
VERTEX
  8
10
 10
582.49262713
 20
602.52571194
  0
VERTEX
  8
10
 10
581.76581267
 20
602.35616312
  0
VERTEX
  8
10
 10
581.05025358
 20
602.17759777
  0
VERTEX
  8
10
 10
580.34629308
 20
601.98941567
  0
VERTEX
  8
10
 10
579.65427440
 20
601.79101653
  0
VERTEX
  8
10
 10
578.97454082
 20
601.58180013
  0
VERTEX
  8
10
 10
578.30743554
 20
601.36116619
  0
VERTEX
  8
10
 10
577.65330182
 20
601.12851452
  0
VERTEX
  8
10
 10
577.01248289
 20
600.88324484
  0
VERTEX
  8
10
 10
576.38532199
 20
600.62475690
  0
VERTEX
  8
10
 10
575.77216234
 20
600.35245046
  0
VERTEX
  8
10
 10
575.17334719
 20
600.06572527
  0
VERTEX
  8
10
 10
574.58921980
 20
599.76398109
  0
VERTEX
  8
10
 10
574.02012341
 20
599.44661769
  0
VERTEX
  8
10
 10
573.46640120
 20
599.11303478
  0
VERTEX
  8
10
 10
572.92839647
 20
598.76263213
  0
VERTEX
  8
10
 10
572.40645242
 20
598.39480951
  0
VERTEX
  8
10
 10
571.99122099
 20
598.08901926
  0
VERTEX
  8
10
 10
571.66640542
 20
597.84621266
  0
VERTEX
  8
10
 10
571.33711348
 20
597.58665889
  0
VERTEX
  8
10
 10
571.00443205
 20
597.31024353
  0
VERTEX
  8
10
 10
570.66944804
 20
597.01685216
  0
VERTEX
  8
10
 10
570.33324842
 20
596.70637038
  0
VERTEX
  8
10
 10
569.99692009
 20
596.37868379
  0
VERTEX
  8
10
 10
569.66154994
 20
596.03367795
  0
VERTEX
  8
10
 10
569.32822495
 20
595.67123847
  0
VERTEX
  8
10
 10
568.99803200
 20
595.29125091
  0
VERTEX
  8
10
 10
568.67205802
 20
594.89360089
  0
VERTEX
  8
10
 10
568.35138991
 20
594.47817399
  0
VERTEX
  8
10
 10
568.03711466
 20
594.04485575
  0
VERTEX
  8
10
 10
567.73031911
 20
593.59353183
  0
VERTEX
  8
10
 10
567.43209024
 20
593.12408777
  0
VERTEX
  8
10
 10
567.14351493
 20
592.63640918
  0
VERTEX
  8
10
 10
566.86568013
 20
592.13038164
  0
VERTEX
  8
10
 10
566.59967275
 20
591.60589070
  0
VERTEX
  8
10
 10
566.34657974
 20
591.06282203
  0
VERTEX
  8
10
 10
566.10748798
 20
590.50106115
  0
VERTEX
  8
10
 10
565.88348441
 20
589.92049367
  0
VERTEX
  8
10
 10
565.67565592
 20
589.32100514
  0
VERTEX
  8
10
 10
565.48508949
 20
588.70248122
  0
VERTEX
  8
10
 10
565.31287202
 20
588.06480745
  0
VERTEX
  8
10
 10
565.16009040
 20
587.40786943
  0
VERTEX
  8
10
 10
565.02783159
 20
586.73155270
  0
VERTEX
  8
10
 10
564.91718250
 20
586.03574294
  0
VERTEX
  8
10
 10
564.82923004
 20
585.32032568
  0
VERTEX
  8
10
 10
564.76506116
 20
584.58518647
  0
VERTEX
  8
10
 10
564.72576273
 20
583.83021098
  0
VERTEX
  8
10
 10
564.71242174
 20
583.05528477
  0
VERTEX
  8
10
 10
564.71850469
 20
582.54937042
  0
VERTEX
  8
10
 10
564.73665818
 20
582.04304134
  0
VERTEX
  8
10
 10
564.76673920
 20
581.53675520
  0
VERTEX
  8
10
 10
564.80860476
 20
581.03096957
  0
VERTEX
  8
10
 10
564.86211182
 20
580.52614217
  0
VERTEX
  8
10
 10
564.92711733
 20
580.02273063
  0
VERTEX
  8
10
 10
565.00347835
 20
579.52119258
  0
VERTEX
  8
10
 10
565.09105183
 20
579.02198572
  0
VERTEX
  8
10
 10
565.18969472
 20
578.52556762
  0
VERTEX
  8
10
 10
565.29926403
 20
578.03239605
  0
VERTEX
  8
10
 10
565.41961677
 20
577.54292854
  0
VERTEX
  8
10
 10
565.55060991
 20
577.05762282
  0
VERTEX
  8
10
 10
565.69210040
 20
576.57693651
  0
VERTEX
  8
10
 10
565.84394524
 20
576.10132728
  0
VERTEX
  8
10
 10
566.00600144
 20
575.63125276
  0
VERTEX
  8
10
 10
566.17812595
 20
575.16717062
  0
VERTEX
  8
10
 10
566.36017580
 20
574.70953850
  0
VERTEX
  8
10
 10
566.55200791
 20
574.25881403
  0
VERTEX
  8
10
 10
566.75347932
 20
573.81545491
  0
VERTEX
  8
10
 10
566.96444698
 20
573.37991874
  0
VERTEX
  8
10
 10
567.18476790
 20
572.95266322
  0
VERTEX
  8
10
 10
567.41429905
 20
572.53414596
  0
VERTEX
  8
10
 10
567.65289741
 20
572.12482464
  0
VERTEX
  8
10
 10
567.90041995
 20
571.72515691
  0
VERTEX
  8
10
 10
568.15672368
 20
571.33560040
  0
VERTEX
  8
10
 10
568.42166559
 20
570.95661275
  0
VERTEX
  8
10
 10
568.69510266
 20
570.58865168
  0
VERTEX
  8
10
 10
568.97689184
 20
570.23217475
  0
VERTEX
  8
10
 10
569.26689016
 20
569.88763969
  0
VERTEX
  8
10
 10
569.56495458
 20
569.55550410
  0
VERTEX
  8
10
 10
569.94443830
 20
569.14524958
  0
VERTEX
  8
10
 10
570.40743876
 20
568.66973331
  0
VERTEX
  8
10
 10
570.88041966
 20
568.22337799
  0
VERTEX
  8
10
 10
571.36246525
 20
567.80526835
  0
VERTEX
  8
10
 10
571.85265980
 20
567.41448906
  0
VERTEX
  8
10
 10
572.35008762
 20
567.05012481
  0
VERTEX
  8
10
 10
572.85383295
 20
566.71126032
  0
VERTEX
  8
10
 10
573.36298007
 20
566.39698027
  0
VERTEX
  8
10
 10
573.87661325
 20
566.10636939
  0
VERTEX
  8
10
 10
574.39381679
 20
565.83851232
  0
VERTEX
  8
10
 10
574.91367498
 20
565.59249382
  0
VERTEX
  8
10
 10
575.43527206
 20
565.36739857
  0
VERTEX
  8
10
 10
575.95769233
 20
565.16231125
  0
VERTEX
  8
10
 10
576.48002007
 20
564.97631656
  0
VERTEX
  8
10
 10
577.00133952
 20
564.80849918
  0
VERTEX
  8
10
 10
577.52073501
 20
564.65794387
  0
VERTEX
  8
10
 10
578.03729077
 20
564.52373528
  0
VERTEX
  8
10
 10
578.55009110
 20
564.40495810
  0
VERTEX
  8
10
 10
579.05822029
 20
564.30069704
  0
VERTEX
  8
10
 10
579.56076258
 20
564.21003684
  0
VERTEX
  8
10
 10
580.05680230
 20
564.13206211
  0
VERTEX
  8
10
 10
580.54542367
 20
564.06585763
  0
VERTEX
  8
10
 10
581.02571102
 20
564.01050804
  0
VERTEX
  8
10
 10
581.49674856
 20
563.96509808
  0
VERTEX
  8
10
 10
581.95762065
 20
563.92871244
  0
VERTEX
  8
10
 10
582.40741151
 20
563.90043578
  0
VERTEX
  8
10
 10
582.84520541
 20
563.87935284
  0
VERTEX
  8
10
 10
583.27008666
 20
563.86454832
  0
VERTEX
  8
10
 10
583.68113953
 20
563.85510688
  0
VERTEX
  8
10
 10
584.07744830
 20
563.85011322
  0
VERTEX
  8
10
 10
584.45809721
 20
563.84865208
  0
VERTEX
  8
10
 10
585.68547915
 20
563.86668163
  0
VERTEX
  8
10
 10
586.86675734
 20
563.91960708
  0
VERTEX
  8
10
 10
588.00296320
 20
564.00568364
  0
VERTEX
  8
10
 10
588.86715331
 20
564.09864353
  0
VERTEX
  8
10
 10
589.94971831
 20
564.26047669
  0
VERTEX
  8
10
 10
591.03228331
 20
564.44556586
  0
SEQEND
  8
10
  0
POLYLINE
  8
10
 62
     4
 66
     1
  0
VERTEX
  8
10
 10
386.91960164
 20
611.93720531
  0
VERTEX
  8
10
 10
386.90577290
 20
612.45574919
  0
VERTEX
  8
10
 10
386.89028119
 20
612.97975920
  0
VERTEX
  8
10
 10
386.87228246
 20
613.50875736
  0
VERTEX
  8
10
 10
386.85093264
 20
614.04226557
  0
VERTEX
  8
10
 10
386.82538765
 20
614.57980577
  0
VERTEX
  8
10
 10
386.79480337
 20
615.12089994
  0
VERTEX
  8
10
 10
386.75833577
 20
615.66506997
  0
VERTEX
  8
10
 10
386.71514076
 20
616.21183781
  0
VERTEX
  8
10
 10
386.66437427
 20
616.76072543
  0
VERTEX
  8
10
 10
386.60519220
 20
617.31125477
  0
VERTEX
  8
10
 10
386.53675048
 20
617.86294773
  0
VERTEX
  8
10
 10
386.45820502
 20
618.41532629
  0
VERTEX
  8
10
 10
386.36871179
 20
618.96791236
  0
VERTEX
  8
10
 10
386.26742667
 20
619.52022793
  0
VERTEX
  8
10
 10
386.15350558
 20
620.07179488
  0
VERTEX
  8
10
 10
386.02610445
 20
620.62213519
  0
VERTEX
  8
10
 10
385.88437920
 20
621.17077082
  0
VERTEX
  8
10
 10
385.72748580
 20
621.71722365
  0
VERTEX
  8
10
 10
385.55458010
 20
622.26101565
  0
VERTEX
  8
10
 10
385.36481806
 20
622.80166879
  0
VERTEX
  8
10
 10
385.15735559
 20
623.33870498
  0
VERTEX
  8
10
 10
384.93134861
 20
623.87164616
  0
VERTEX
  8
10
 10
384.68595307
 20
624.40001426
  0
VERTEX
  8
10
 10
384.42032487
 20
624.92333127
  0
VERTEX
  8
10
 10
384.13361992
 20
625.44111907
  0
VERTEX
  8
10
 10
383.82499418
 20
625.95289966
  0
VERTEX
  8
10
 10
383.49360354
 20
626.45819495
  0
VERTEX
  8
10
 10
383.13860391
 20
626.95652688
  0
VERTEX
  8
10
 10
382.76404800
 20
627.44240272
  0
VERTEX
  8
10
 10
382.38080645
 20
627.90366161
  0
VERTEX
  8
10
 10
381.98270140
 20
628.34702400
  0
VERTEX
  8
10
 10
381.57023963
 20
628.77265882
  0
VERTEX
  8
10
 10
381.14392799
 20
629.18073505
  0
VERTEX
  8
10
 10
380.70427328
 20
629.57142155
  0
VERTEX
  8
10
 10
380.25178233
 20
629.94488734
  0
VERTEX
  8
10
 10
379.78696195
 20
630.30130131
  0
VERTEX
  8
10
 10
379.31031897
 20
630.64083241
  0
VERTEX
  8
10
 10
378.82236019
 20
630.96364959
  0
VERTEX
  8
10
 10
378.32359244
 20
631.26992178
  0
VERTEX
  8
10
 10
377.81452257
 20
631.55981794
  0
VERTEX
  8
10
 10
377.29565733
 20
631.83350700
  0
VERTEX
  8
10
 10
376.76750360
 20
632.09115787
  0
VERTEX
  8
10
 10
376.23056820
 20
632.33293953
  0
VERTEX
  8
10
 10
375.68535789
 20
632.55902087
  0
VERTEX
  8
10
 10
375.13237956
 20
632.76957090
  0
VERTEX
  8
10
 10
374.57213996
 20
632.96475850
  0
VERTEX
  8
10
 10
374.00514596
 20
633.14475262
  0
VERTEX
  8
10
 10
373.43190438
 20
633.30972225
  0
VERTEX
  8
10
 10
372.85292201
 20
633.45983626
  0
VERTEX
  8
10
 10
372.26870570
 20
633.59526364
  0
VERTEX
  8
10
 10
371.67976222
 20
633.71617330
  0
VERTEX
  8
10
 10
371.08659844
 20
633.82273419
  0
VERTEX
  8
10
 10
370.48972115
 20
633.91511526
  0
VERTEX
  8
10
 10
369.88963718
 20
633.99348543
  0
VERTEX
  8
10
 10
369.28685336
 20
634.05801364
  0
VERTEX
  8
10
 10
368.68187649
 20
634.10886885
  0
VERTEX
  8
10
 10
368.07521338
 20
634.14622000
  0
VERTEX
  8
10
 10
367.46737089
 20
634.17023599
  0
VERTEX
  8
10
 10
366.85885582
 20
634.18108581
  0
VERTEX
  8
10
 10
365.85247687
 20
634.17270811
  0
VERTEX
  8
10
 10
364.67724017
 20
634.12594835
  0
VERTEX
  8
10
 10
363.53768087
 20
634.04137883
  0
VERTEX
  8
10
 10
362.43346116
 20
633.92116640
  0
VERTEX
  8
10
 10
361.36424326
 20
633.76747788
  0
VERTEX
  8
10
 10
360.32968944
 20
633.58248007
  0
VERTEX
  8
10
 10
359.32946189
 20
633.36833986
  0
VERTEX
  8
10
 10
358.36322282
 20
633.12722402
  0
VERTEX
  8
10
 10
357.43063450
 20
632.86129946
  0
VERTEX
  8
10
 10
356.53135913
 20
632.57273299
  0
VERTEX
  8
10
 10
355.66505892
 20
632.26369142
  0
VERTEX
  8
10
 10
354.83139611
 20
631.93634161
  0
VERTEX
  8
10
 10
354.03003291
 20
631.59285037
  0
VERTEX
  8
10
 10
353.26063157
 20
631.23538455
  0
VERTEX
  8
10
 10
352.52285431
 20
630.86611101
  0
VERTEX
  8
10
 10
351.81636333
 20
630.48719654
  0
VERTEX
  8
10
 10
351.14082085
 20
630.10080802
  0
VERTEX
  8
10
 10
350.49588914
 20
629.70911225
  0
VERTEX
  8
10
 10
349.88123035
 20
629.31427608
  0
VERTEX
  8
10
 10
349.29650680
 20
628.91846632
  0
VERTEX
  8
10
 10
348.74138063
 20
628.52384988
  0
VERTEX
  8
10
 10
348.21551412
 20
628.13259351
  0
VERTEX
  8
10
 10
347.71856947
 20
627.74686408
  0
VERTEX
  8
10
 10
347.25020889
 20
627.36882842
  0
VERTEX
  8
10
 10
346.81009463
 20
627.00065338
  0
VERTEX
  8
10
 10
346.39788889
 20
626.64450578
  0
VERTEX
  8
10
 10
346.01325393
 20
626.30255245
  0
VERTEX
  8
10
 10
345.65585193
 20
625.97696023
  0
VERTEX
  8
10
 10
345.32534516
 20
625.66989598
  0
VERTEX
  8
10
 10
345.02139581
 20
625.38352650
  0
VERTEX
  8
10
 10
344.74366609
 20
625.12001863
  0
VERTEX
  8
10
 10
344.74366609
 20
667.21287932
  0
VERTEX
  8
10
 10
344.74085858
 20
667.27177467
  0
VERTEX
  8
10
 10
343.29636572
 20
667.27177467
  0
VERTEX
  8
10
 10
342.97637146
 20
667.27177467
  0
VERTEX
  8
10
 10
336.76774481
 20
667.27177467
  0
VERTEX
  8
10
 10
336.76493730
 20
667.12897049
  0
VERTEX
  8
10
 10
336.76493730
 20
565.06597431
  0
VERTEX
  8
10
 10
344.73251804
 20
565.06597431
  0
VERTEX
  8
10
 10
344.74366609
 20
565.08201342
  0
VERTEX
  8
10
 10
344.74366609
 20
610.63187332
  0
VERTEX
  8
10
 10
344.75258270
 20
610.86882457
  0
VERTEX
  8
10
 10
344.76635862
 20
611.20161521
  0
VERTEX
  8
10
 10
344.78116580
 20
611.53608750
  0
VERTEX
  8
10
 10
344.79762301
 20
611.87221296
  0
VERTEX
  8
10
 10
344.81634899
 20
612.20996317
  0
VERTEX
  8
10
 10
344.83796250
 20
612.54930968
  0
VERTEX
  8
10
 10
344.86308228
 20
612.89022400
  0
VERTEX
  8
10
 10
344.89232712
 20
613.23267774
  0
VERTEX
  8
10
 10
344.92631574
 20
613.57664241
  0
VERTEX
  8
10
 10
344.96566692
 20
613.92208957
  0
VERTEX
  8
10
 10
345.01099937
 20
614.26899077
  0
VERTEX
  8
10
 10
345.06293192
 20
614.61731755
  0
VERTEX
  8
10
 10
345.12208327
 20
614.96704150
  0
VERTEX
  8
10
 10
345.18907222
 20
615.31813410
  0
VERTEX
  8
10
 10
345.26451747
 20
615.67056698
  0
VERTEX
  8
10
 10
345.34903783
 20
616.02431163
  0
VERTEX
  8
10
 10
345.44325202
 20
616.37933960
  0
VERTEX
  8
10
 10
345.54777880
 20
616.73562251
  0
VERTEX
  8
10
 10
345.66323696
 20
617.09313184
  0
VERTEX
  8
10
 10
345.79024519
 20
617.45183914
  0
VERTEX
  8
10
 10
345.92942231
 20
617.81171602
  0
VERTEX
  8
10
 10
346.08138704
 20
618.17273396
  0
VERTEX
  8
10
 10
346.24675817
 20
618.53486457
  0
VERTEX
  8
10
 10
346.42615441
 20
618.89807936
  0
VERTEX
  8
10
 10
346.62019454
 20
619.26234989
  0
VERTEX
  8
10
 10
346.82949731
 20
619.62764774
  0
VERTEX
  8
10
 10
347.05468151
 20
619.99394440
  0
VERTEX
  8
10
 10
347.29636582
 20
620.36121148
  0
VERTEX
  8
10
 10
347.55516910
 20
620.72942047
  0
VERTEX
  8
10
 10
347.83171001
 20
621.09854301
  0
VERTEX
  8
10
 10
348.12660732
 20
621.46855056
  0
VERTEX
  8
10
 10
348.46626328
 20
621.86029287
  0
VERTEX
  8
10
 10
348.82340594
 20
622.24150217
  0
VERTEX
  8
10
 10
349.19738761
 20
622.61201022
  0
VERTEX
  8
10
 10
349.58756055
 20
622.97164882
  0
VERTEX
  8
10
 10
349.99327704
 20
623.32024976
  0
VERTEX
  8
10
 10
350.41388937
 20
623.65764480
  0
VERTEX
  8
10
 10
350.84874981
 20
623.98366574
  0
VERTEX
  8
10
 10
351.29721065
 20
624.29814438
  0
VERTEX
  8
10
 10
351.75862413
 20
624.60091249
  0
VERTEX
  8
10
 10
352.23234256
 20
624.89180183
  0
VERTEX
  8
10
 10
352.71771823
 20
625.17064425
  0
VERTEX
  8
10
 10
353.21410338
 20
625.43727147
  0
VERTEX
  8
10
 10
353.72085030
 20
625.69151529
  0
VERTEX
  8
10
 10
354.23731126
 20
625.93320748
  0
VERTEX
  8
10
 10
354.76283857
 20
626.16217988
  0
VERTEX
  8
10
 10
355.29678445
 20
626.37826424
  0
VERTEX
  8
10
 10
355.83850122
 20
626.58129232
  0
VERTEX
  8
10
 10
356.38734118
 20
626.77109596
  0
VERTEX
  8
10
 10
356.94265655
 20
626.94750689
  0
VERTEX
  8
10
 10
357.50379964
 20
627.11035694
  0
VERTEX
  8
10
 10
358.07012271
 20
627.25947784
  0
VERTEX
  8
10
 10
358.64097806
 20
627.39470144
  0
VERTEX
  8
10
 10
359.21571794
 20
627.51585946
  0
VERTEX
  8
10
 10
359.79369465
 20
627.62278374
  0
VERTEX
  8
10
 10
360.37426044
 20
627.71530604
  0
VERTEX
  8
10
 10
360.95676762
 20
627.79325814
  0
VERTEX
  8
10
 10
361.54056845
 20
627.85647182
  0
VERTEX
  8
10
 10
362.12501521
 20
627.90477887
  0
VERTEX
  8
10
 10
362.70946018
 20
627.93801111
  0
VERTEX
  8
10
 10
363.29325565
 20
627.95600028
  0
VERTEX
  8
10
 10
363.76116157
 20
627.95929797
  0
VERTEX
  8
10
 10
363.99987051
 20
627.95712629
  0
VERTEX
  8
10
 10
364.23930152
 20
627.95229903
  0
VERTEX
  8
10
 10
364.47934186
 20
627.94475898
  0
VERTEX
  8
10
 10
364.71987880
 20
627.93444895
  0
VERTEX
  8
10
 10
364.96079957
 20
627.92131166
  0
VERTEX
  8
10
 10
365.20199136
 20
627.90528999
  0
VERTEX
  8
10
 10
365.44334143
 20
627.88632665
  0
VERTEX
  8
10
 10
365.68473706
 20
627.86436450
  0
VERTEX
  8
10
 10
365.92606539
 20
627.83934628
  0
VERTEX
  8
10
 10
366.16721376
 20
627.81121480
  0
VERTEX
  8
10
 10
366.40806932
 20
627.77991285
  0
VERTEX
  8
10
 10
366.64851936
 20
627.74538322
  0
VERTEX
  8
10
 10
366.88845110
 20
627.70756867
  0
VERTEX
  8
10
 10
367.12775174
 20
627.66641203
  0
VERTEX
  8
10
 10
367.36630860
 20
627.62185608
  0
VERTEX
  8
10
 10
367.60400884
 20
627.57384363
  0
VERTEX
  8
10
 10
367.84073971
 20
627.52231743
  0
VERTEX
  8
10
 10
368.07638847
 20
627.46722030
  0
VERTEX
  8
10
 10
368.31084234
 20
627.40849499
  0
VERTEX
  8
10
 10
368.54398854
 20
627.34608434
  0
VERTEX
  8
10
 10
368.77571435
 20
627.27993113
  0
VERTEX
  8
10
 10
369.00590696
 20
627.20997812
  0
VERTEX
  8
10
 10
369.23445363
 20
627.13616812
  0
VERTEX
  8
10
 10
369.46124159
 20
627.05844393
  0
VERTEX
  8
10
 10
369.68615806
 20
626.97674832
  0
VERTEX
  8
10
 10
369.90909030
 20
626.89102410
  0
VERTEX
  8
10
 10
370.12992553
 20
626.80121405
  0
VERTEX
  8
10
 10
370.34855101
 20
626.70726094
  0
VERTEX
  8
10
 10
370.56485393
 20
626.60910760
  0
VERTEX
  8
10
 10
370.77872158
 20
626.50669678
  0
VERTEX
  8
10
 10
371.35910583
 20
626.22718621
  0
VERTEX
  8
10
 10
372.08356116
 20
625.83706330
  0
VERTEX
  8
10
 10
372.76130854
 20
625.41906985
  0
VERTEX
  8
10
 10
373.39383952
 20
624.97357166
  0
VERTEX
  8
10
 10
373.98264570
 20
624.50093461
  0
VERTEX
  8
10
 10
374.52921868
 20
624.00152443
  0
VERTEX
  8
10
 10
375.03505007
 20
623.47570699
  0
VERTEX
  8
10
 10
375.50163145
 20
622.92384806
  0
VERTEX
  8
10
 10
375.93045439
 20
622.34631346
  0
VERTEX
  8
10
 10
376.32301053
 20
621.74346904
  0
VERTEX
  8
10
 10
376.68079142
 20
621.11568056
  0
VERTEX
  8
10
 10
377.00528869
 20
620.46331387
  0
VERTEX
  8
10
 10
377.29799391
 20
619.78673476
  0
VERTEX
  8
10
 10
377.56039869
 20
619.08630903
  0
VERTEX
  8
10
 10
377.79399460
 20
618.36240255
  0
VERTEX
  8
10
 10
378.00027326
 20
617.61538105
  0
VERTEX
  8
10
 10
378.18072622
 20
616.84561042
  0
VERTEX
  8
10
 10
378.33684514
 20
616.05345642
  0
VERTEX
  8
10
 10
378.47012157
 20
615.23928486
  0
VERTEX
  8
10
 10
378.58204709
 20
614.40346159
  0
VERTEX
  8
10
 10
378.67411336
 20
613.54635242
  0
VERTEX
  8
10
 10
378.74781190
 20
612.66832312
  0
VERTEX
  8
10
 10
378.80463435
 20
611.76973952
  0
VERTEX
  8
10
 10
378.84607226
 20
610.85096745
  0
VERTEX
  8
10
 10
378.87361727
 20
609.91237271
  0
VERTEX
  8
10
 10
378.88876097
 20
608.95432110
  0
VERTEX
  8
10
 10
378.89299492
 20
607.97717844
  0
VERTEX
  8
10
 10
378.88781074
 20
606.98131056
  0
VERTEX
  8
10
 10
378.87470001
 20
605.96708324
  0
VERTEX
  8
10
 10
378.85515431
 20
604.93486231
  0
VERTEX
  8
10
 10
378.83066528
 20
603.88501360
  0
VERTEX
  8
10
 10
378.83066528
 20
565.12021312
  0
VERTEX
  8
10
 10
378.83352074
 20
565.06597431
  0
VERTEX
  8
10
 10
386.94279116
 20
565.06597431
  0
VERTEX
  8
10
 10
386.94564659
 20
565.13004039
  0
VERTEX
  8
10
 10
386.94564659
 20
610.91842836
  0
VERTEX
  8
10
 10
386.93261153
 20
611.42460571
  0
VERTEX
  8
10
 10
386.91960164
 20
611.93720531
  0
SEQEND
  8
10
  0
POLYLINE
  8
10
 62
     4
 66
     1
  0
VERTEX
  8
10
 10
549.42539652
 20
632.52115688
  0
VERTEX
  8
10
 10
534.28846158
 20
581.41872140
  0
VERTEX
  8
10
 10
534.22683693
 20
581.17382600
  0
VERTEX
  8
10
 10
534.16505243
 20
580.93001652
  0
VERTEX
  8
10
 10
534.10619398
 20
580.69973927
  0
VERTEX
  8
10
 10
534.04997690
 20
580.48191304
  0
VERTEX
  8
10
 10
533.99611652
 20
580.27545670
  0
VERTEX
  8
10
 10
533.94432817
 20
580.07928905
  0
VERTEX
  8
10
 10
533.89432717
 20
579.89232892
  0
VERTEX
  8
10
 10
533.84582892
 20
579.71349513
  0
VERTEX
  8
10
 10
533.79854872
 20
579.54170649
  0
VERTEX
  8
10
 10
533.75220189
 20
579.37588187
  0
VERTEX
  8
10
 10
533.70650379
 20
579.21494005
  0
VERTEX
  8
10
 10
533.66116972
 20
579.05779988
  0
VERTEX
  8
10
 10
533.61591507
 20
578.90338015
  0
VERTEX
  8
10
 10
533.57045516
 20
578.75059975
  0
VERTEX
  8
10
 10
533.52450530
 20
578.59837742
  0
VERTEX
  8
10
 10
533.47778084
 20
578.44563204
  0
VERTEX
  8
10
 10
533.42999712
 20
578.29128240
  0
VERTEX
  8
10
 10
533.38086948
 20
578.13424734
  0
VERTEX
  8
10
 10
533.33011326
 20
577.97344570
  0
VERTEX
  8
10
 10
533.27744379
 20
577.80779629
  0
VERTEX
  8
10
 10
533.22257639
 20
577.63621793
  0
VERTEX
  8
10
 10
533.16522643
 20
577.45762946
  0
VERTEX
  8
10
 10
533.10510923
 20
577.27094967
  0
VERTEX
  8
10
 10
533.04194009
 20
577.07509741
  0
VERTEX
  8
10
 10
532.97543442
 20
576.86899150
  0
VERTEX
  8
10
 10
532.90530751
 20
576.65155076
  0
VERTEX
  8
10
 10
532.83127467
 20
576.42169400
  0
VERTEX
  8
10
 10
532.75305132
 20
576.17834009
  0
VERTEX
  8
10
 10
532.67035271
 20
575.92040780
  0
VERTEX
  8
10
 10
532.58289422
 20
575.64681600
  0
VERTEX
  8
10
 10
532.48003874
 20
575.65799717
  0
VERTEX
  8
10
 10
532.36499389
 20
576.06753737
  0
VERTEX
  8
10
 10
532.25464489
 20
576.46223984
  0
VERTEX
  8
10
 10
532.14862142
 20
576.84327137
  0
VERTEX
  8
10
 10
532.04655309
 20
577.21179867
  0
VERTEX
  8
10
 10
531.94806956
 20
577.56898854
  0
VERTEX
  8
10
 10
531.85280049
 20
577.91600775
  0
VERTEX
  8
10
 10
531.76037548
 20
578.25402305
  0
VERTEX
  8
10
 10
531.67042420
 20
578.58420122
  0
VERTEX
  8
10
 10
531.58257630
 20
578.90770900
  0
VERTEX
  8
10
 10
531.49646143
 20
579.22571319
  0
VERTEX
  8
10
 10
531.41170921
 20
579.53938051
  0
VERTEX
  8
10
 10
531.32794928
 20
579.84987773
  0
VERTEX
  8
10
 10
531.07891981
 20
580.77401656
  0
VERTEX
  8
10
 10
530.99542552
 20
581.08350111
  0
VERTEX
  8
10
 10
530.91107180
 20
581.39564937
  0
VERTEX
  8
10
 10
530.82548819
 20
581.71162816
  0
VERTEX
  8
10
 10
530.73830444
 20
582.03260418
  0
VERTEX
  8
10
 10
530.64915013
 20
582.35974423
  0
VERTEX
  8
10
 10
530.55765491
 20
582.69421508
  0
VERTEX
  8
10
 10
530.46344843
 20
583.03718347
  0
VERTEX
  8
10
 10
530.36616034
 20
583.38981621
  0
VERTEX
  8
10
 10
530.26542025
 20
583.75328001
  0
VERTEX
  8
10
 10
530.16085786
 20
584.12874167
  0
VERTEX
  8
10
 10
530.05210277
 20
584.51736793
  0
VERTEX
  8
10
 10
529.93878466
 20
584.92032556
  0
VERTEX
  8
10
 10
529.82053314
 20
585.33878136
  0
VERTEX
  8
10
 10
529.69697786
 20
585.77390202
  0
VERTEX
  8
10
 10
529.56774847
 20
586.22685438
  0
VERTEX
  8
10
 10
529.51962023
 20
586.39257002
  0
VERTEX
  8
10
 10
516.04463595
 20
632.49910052
  0
VERTEX
  8
10
 10
516.02392932
 20
632.55771553
  0
VERTEX
  8
10
 10
509.55970752
 20
632.55771553
  0
VERTEX
  8
10
 10
509.23039595
 20
632.55771553
  0
VERTEX
  8
10
 10
507.77842311
 20
632.55771553
  0
VERTEX
  8
10
 10
507.74259861
 20
632.44794797
  0
VERTEX
  8
10
 10
492.05303903
 20
583.47242004
  0
VERTEX
  8
10
 10
491.95088176
 20
583.15187110
  0
VERTEX
  8
10
 10
491.85349941
 20
582.84395677
  0
VERTEX
  8
10
 10
491.76054957
 20
582.54770870
  0
VERTEX
  8
10
 10
491.67168995
 20
582.26215856
  0
VERTEX
  8
10
 10
491.58657820
 20
581.98633809
  0
VERTEX
  8
10
 10
491.50487190
 20
581.71927892
  0
VERTEX
  8
10
 10
491.42622878
 20
581.46001274
  0
VERTEX
  8
10
 10
491.35030645
 20
581.20757126
  0
VERTEX
  8
10
 10
491.27676256
 20
580.96098613
  0
VERTEX
  8
10
 10
491.20525475
 20
580.71928909
  0
VERTEX
  8
10
 10
491.13544068
 20
580.48151174
  0
VERTEX
  8
10
 10
491.06697800
 20
580.24668581
  0
VERTEX
  8
10
 10
490.99952436
 20
580.01384297
  0
VERTEX
  8
10
 10
490.93273740
 20
579.78201491
  0
VERTEX
  8
10
 10
490.86627478
 20
579.55023332
  0
VERTEX
  8
10
 10
490.79979414
 20
579.31752986
  0
VERTEX
  8
10
 10
490.73295312
 20
579.08293623
  0
VERTEX
  8
10
 10
490.52684435
 20
578.35813111
  0
VERTEX
  8
10
 10
490.45513833
 20
578.10629361
  0
VERTEX
  8
10
 10
490.38136020
 20
577.84772434
  0
VERTEX
  8
10
 10
490.30516760
 20
577.58145498
  0
VERTEX
  8
10
 10
490.22621815
 20
577.30651722
  0
VERTEX
  8
10
 10
490.14416951
 20
577.02194275
  0
VERTEX
  8
10
 10
490.05867935
 20
576.72676324
  0
VERTEX
  8
10
 10
489.96940530
 20
576.42001037
  0
VERTEX
  8
10
 10
489.87600503
 20
576.10071585
  0
VERTEX
  8
10
 10
489.77813616
 20
575.76791132
  0
VERTEX
  8
10
 10
489.67545637
 20
575.42062851
  0
VERTEX
  8
10
 10
489.58129611
 20
575.62191115
  0
VERTEX
  8
10
 10
489.49463458
 20
575.95427047
  0
VERTEX
  8
10
 10
489.41258372
 20
576.26811068
  0
VERTEX
  8
10
 10
489.33480180
 20
576.56474157
  0
VERTEX
  8
10
 10
489.26094708
 20
576.84547299
  0
VERTEX
  8
10
 10
489.19067787
 20
577.11161476
  0
VERTEX
  8
10
 10
489.12365243
 20
577.36447674
  0
VERTEX
  8
10
 10
489.05952902
 20
577.60536873
  0
VERTEX
  8
10
 10
488.99796594
 20
577.83560057
  0
VERTEX
  8
10
 10
488.93862149
 20
578.05648208
  0
VERTEX
  8
10
 10
488.88115392
 20
578.26932310
  0
VERTEX
  8
10
 10
488.82522148
 20
578.47543349
  0
VERTEX
  8
10
 10
488.77048249
 20
578.67612303
  0
VERTEX
  8
10
 10
488.71659523
 20
578.87270156
  0
VERTEX
  8
10
 10
488.66321797
 20
579.06647894
  0
VERTEX
  8
10
 10
488.61000897
 20
579.25876497
  0
VERTEX
  8
10
 10
488.55662651
 20
579.45086948
  0
VERTEX
  8
10
 10
488.50272889
 20
579.64410233
  0
VERTEX
  8
10
 10
488.44797437
 20
579.83977330
  0
VERTEX
  8
10
 10
488.39202123
 20
580.03919228
  0
VERTEX
  8
10
 10
488.33452776
 20
580.24366907
  0
VERTEX
  8
10
 10
488.27515225
 20
580.45451350
  0
VERTEX
  8
10
 10
488.01199504
 20
581.38776417
  0
VERTEX
  8
10
 10
487.93808339
 20
581.65009424
  0
VERTEX
  8
10
 10
487.86023932
 20
581.92665094
  0
VERTEX
  8
10
 10
487.77812114
 20
582.21874407
  0
VERTEX
  8
10
 10
487.69138713
 20
582.52768350
  0
VERTEX
  8
10
 10
487.62123665
 20
582.77790448
  0
VERTEX
  8
10
 10
473.69633848
 20
632.54667853
  0
VERTEX
  8
10
 10
473.67766519
 20
632.55771553
  0
VERTEX
  8
10
 10
473.60857895
 20
632.55771553
  0
VERTEX
  8
10
 10
464.64883631
 20
632.55771553
  0
VERTEX
  8
10
 10
464.63382812
 20
632.54812960
  0
VERTEX
  8
10
 10
484.77599047
 20
565.08749287
  0
VERTEX
  8
10
 10
484.79486758
 20
565.06597431
  0
VERTEX
  8
10
 10
493.15110532
 20
565.06597431
  0
VERTEX
  8
10
 10
493.17116744
 20
565.06990306
  0
VERTEX
  8
10
 10
508.98673421
 20
614.16321958
  0
VERTEX
  8
10
 10
509.02679041
 20
614.30016925
  0
VERTEX
  8
10
 10
509.07746707
 20
614.47769259
  0
VERTEX
  8
10
 10
509.12620871
 20
614.64944646
  0
VERTEX
  8
10
 10
509.17344446
 20
614.81668301
  0
VERTEX
  8
10
 10
509.21960338
 20
614.98065436
  0
VERTEX
  8
10
 10
509.31040717
 20
615.30381015
  0
VERTEX
  8
10
 10
509.35591024
 20
615.46549882
  0
VERTEX
  8
10
 10
509.40205285
 20
615.62893092
  0
VERTEX
  8
10
 10
509.44926415
 20
615.79535852
  0
VERTEX
  8
10
 10
509.49797316
 20
615.96603378
  0
VERTEX
  8
10
 10
509.54860903
 20
616.14220888
  0
VERTEX
  8
10
 10
509.60160085
 20
616.32513595
  0
VERTEX
  8
10
 10
509.65737769
 20
616.51606710
  0
VERTEX
  8
10
 10
509.71636862
 20
616.71625450
  0
VERTEX
  8
10
 10
509.77900279
 20
616.92695026
  0
VERTEX
  8
10
 10
509.84570927
 20
617.14940657
  0
VERTEX
  8
10
 10
509.91691716
 20
617.38487554
  0
VERTEX
  8
10
 10
509.99305551
 20
617.63460931
  0
VERTEX
  8
10
 10
510.07455349
 20
617.89986005
  0
VERTEX
  8
10
 10
510.16184013
 20
618.18187990
  0
VERTEX
  8
10
 10
510.25534453
 20
618.48192096
  0
VERTEX
  8
10
 10
510.35549582
 20
618.80123540
  0
VERTEX
  8
10
 10
510.46272305
 20
619.14107539
  0
VERTEX
  8
10
 10
510.57745534
 20
619.50269300
  0
VERTEX
  8
10
 10
510.70012179
 20
619.88734045
  0
VERTEX
  8
10
 10
510.83115144
 20
620.29626982
  0
VERTEX
  8
10
 10
510.97097346
 20
620.73073329
  0
VERTEX
  8
10
 10
511.12001688
 20
621.19198300
  0
VERTEX
  8
10
 10
511.27871083
 20
621.68127109
  0
VERTEX
  8
10
 10
511.44039082
 20
622.09510705
  0
VERTEX
  8
10
 10
511.54407641
 20
621.64284661
  0
VERTEX
  8
10
 10
511.64376665
 20
621.20917587
  0
VERTEX
  8
10
 10
511.73977478
 20
620.79284328
  0
VERTEX
  8
10
 10
511.83241411
 20
620.39259735
  0
VERTEX
  8
10
 10
511.92199798
 20
620.00718657
  0
VERTEX
  8
10
 10
512.00883961
 20
619.63535941
  0
VERTEX
  8
10
 10
512.09325237
 20
619.27586437
  0
VERTEX
  8
10
 10
512.17554951
 20
618.92744992
  0
VERTEX
  8
10
 10
512.25604437
 20
618.58886458
  0
VERTEX
  8
10
 10
512.33505022
 20
618.25885682
  0
VERTEX
  8
10
 10
512.41288035
 20
617.93617512
  0
VERTEX
  8
10
 10
512.48984807
 20
617.61956798
  0
VERTEX
  8
10
 10
512.56626671
 20
617.30778386
  0
VERTEX
  8
10
 10
512.64244949
 20
616.99957129
  0
VERTEX
  8
10
 10
512.71870978
 20
616.69367872
  0
VERTEX
  8
10
 10
512.79536084
 20
616.38885466
  0
VERTEX
  8
10
 10
512.87271600
 20
616.08384757
  0
VERTEX
  8
10
 10
512.95108854
 20
615.77740598
  0
VERTEX
  8
10
 10
513.03079174
 20
615.46827833
  0
VERTEX
  8
10
 10
513.11213891
 20
615.15521315
  0
VERTEX
  8
10
 10
513.19544335
 20
614.83695890
  0
VERTEX
  8
10
 10
513.28101835
 20
614.51226408
  0
VERTEX
  8
10
 10
513.36917722
 20
614.17987716
  0
VERTEX
  8
10
 10
513.46023326
 20
613.83854664
  0
VERTEX
  8
10
 10
513.55449979
 20
613.48702101
  0
VERTEX
  8
10
 10
513.65229005
 20
613.12404878
  0
VERTEX
  8
10
 10
513.75391736
 20
612.74837837
  0
VERTEX
  8
10
 10
513.85969504
 20
612.35875832
  0
VERTEX
  8
10
 10
513.96993636
 20
611.95393712
  0
VERTEX
  8
10
 10
514.08495465
 20
611.53266322
  0
VERTEX
  8
10
 10
514.14900965
 20
611.30074803
  0
VERTEX
  8
10
 10
527.35167048
 20
565.19694146
  0
VERTEX
  8
10
 10
527.38925122
 20
565.06597431
  0
VERTEX
  8
10
 10
535.90483306
 20
565.06597431
  0
VERTEX
  8
10
 10
535.92940624
 20
565.12547133
  0
VERTEX
  8
10
 10
556.87541419
 20
632.55771553
  0
VERTEX
  8
10
 10
549.44278347
 20
632.55771553
  0
VERTEX
  8
10
 10
549.42539652
 20
632.52115688
  0
SEQEND
  8
10
  0
POLYLINE
  8
10
 62
     4
 66
     1
  0
VERTEX
  8
10
 10
593.19741331
 20
571.30204981
  0
VERTEX
  8
10
 10
592.11484831
 20
571.03201658
  0
VERTEX
  8
10
 10
591.04701822
 20
570.81025044
  0
VERTEX
  8
10
 10
589.94971831
 20
570.59434545
  0
VERTEX
  8
10
 10
588.86715331
 20
570.43895476
  0
VERTEX
  8
10
 10
588.62444116
 20
570.41493966
  0
VERTEX
  8
10
 10
588.25024790
 20
570.38504952
  0
VERTEX
  8
10
 10
587.87946222
 20
570.36274124
  0
VERTEX
  8
10
 10
587.51251859
 20
570.34816815
  0
VERTEX
  8
10
 10
587.14985146
 20
570.34148362
  0
VERTEX
  8
10
 10
586.54543363
 20
570.34784887
  0
VERTEX
  8
10
 10
585.82787381
 20
570.38343249
  0
VERTEX
  8
10
 10
585.12214463
 20
570.44908801
  0
VERTEX
  8
10
 10
584.42903917
 20
570.54440647
  0
VERTEX
  8
10
 10
583.74935042
 20
570.66897901
  0
VERTEX
  8
10
 10
583.08387139
 20
570.82239669
  0
VERTEX
  8
10
 10
582.43339512
 20
571.00425064
  0
VERTEX
  8
10
 10
581.79871460
 20
571.21413187
  0
VERTEX
  8
10
 10
581.18062281
 20
571.45163156
  0
VERTEX
  8
10
 10
580.57991283
 20
571.71634076
  0
VERTEX
  8
10
 10
579.99737765
 20
572.00785054
  0
VERTEX
  8
10
 10
579.43381027
 20
572.32575202
  0
VERTEX
  8
10
 10
578.89000369
 20
572.66963627
  0
VERTEX
  8
10
 10
578.36675098
 20
573.03909443
  0
VERTEX
  8
10
 10
577.86484510
 20
573.43371752
  0
VERTEX
  8
10
 10
577.38507908
 20
573.85309667
  0
VERTEX
  8
10
 10
576.92824594
 20
574.29682298
  0
VERTEX
  8
10
 10
576.49513871
 20
574.76448754
  0
VERTEX
  8
10
 10
576.08655036
 20
575.25568140
  0
VERTEX
  8
10
 10
575.70327390
 20
575.76999568
  0
VERTEX
  8
10
 10
575.34610243
 20
576.30702147
  0
VERTEX
  8
10
 10
575.01582885
 20
576.86634987
  0
VERTEX
  8
10
 10
574.71324624
 20
577.44757194
  0
VERTEX
  8
10
 10
574.43914763
 20
578.05027881
  0
VERTEX
  8
10
 10
574.19432599
 20
578.67406154
  0
VERTEX
  8
10
 10
573.97957433
 20
579.31851124
  0
VERTEX
  8
10
 10
573.79568569
 20
579.98321900
  0
VERTEX
  8
10
 10
573.64345309
 20
580.66777588
  0
VERTEX
  8
10
 10
573.52366949
 20
581.37177298
  0
VERTEX
  8
10
 10
573.43712797
 20
582.09480143
  0
VERTEX
  8
10
 10
573.38462152
 20
582.83645231
  0
VERTEX
  8
10
 10
573.36694315
 20
583.59631666
  0
VERTEX
  8
10
 10
573.40155711
 20
584.64523953
  0
VERTEX
  8
10
 10
573.50301300
 20
585.64063498
  0
VERTEX
  8
10
 10
573.66773170
 20
586.58398420
  0
VERTEX
  8
10
 10
573.89213411
 20
587.47676834
  0
VERTEX
  8
10
 10
574.17264120
 20
588.32046854
  0
VERTEX
  8
10
 10
574.50567382
 20
589.11656603
  0
VERTEX
  8
10
 10
574.88765292
 20
589.86654195
  0
VERTEX
  8
10
 10
575.31499944
 20
590.57187747
  0
VERTEX
  8
10
 10
575.78413424
 20
591.23405376
  0
VERTEX
  8
10
 10
576.29147827
 20
591.85455196
  0
VERTEX
  8
10
 10
576.83345245
 20
592.43485331
  0
VERTEX
  8
10
 10
577.40647766
 20
592.97643889
  0
VERTEX
  8
10
 10
578.00697488
 20
593.48078994
  0
VERTEX
  8
10
 10
578.63136494
 20
593.94938761
  0
VERTEX
  8
10
 10
579.27606883
 20
594.38371303
  0
VERTEX
  8
10
 10
579.93750744
 20
594.78524742
  0
VERTEX
  8
10
 10
580.61210168
 20
595.15547195
  0
VERTEX
  8
10
 10
581.29627245
 20
595.49586774
  0
VERTEX
  8
10
 10
581.98644069
 20
595.80791600
  0
VERTEX
  8
10
 10
582.67902733
 20
596.09309789
  0
VERTEX
  8
10
 10
583.37045322
 20
596.35289455
  0
VERTEX
  8
10
 10
584.05713935
 20
596.58878720
  0
VERTEX
  8
10
 10
584.73550660
 20
596.80225698
  0
VERTEX
  8
10
 10
585.40197588
 20
596.99478507
  0
VERTEX
  8
10
 10
586.05296814
 20
597.16785260
  0
VERTEX
  8
10
 10
586.68490426
 20
597.32294081
  0
VERTEX
  8
10
 10
587.29420515
 20
597.46153081
  0
VERTEX
  8
10
 10
587.87729175
 20
597.58510378
  0
VERTEX
  8
10
 10
588.43058498
 20
597.69514091
  0
VERTEX
  8
10
 10
588.86715331
 20
597.77741505
  0
VERTEX
  8
10
 10
589.94971831
 20
597.97887606
  0
VERTEX
  8
10
 10
591.03228331
 20
598.14948945
  0
VERTEX
  8
10
 10
593.19741331
 20
598.47315460
  0
VERTEX
  8
10
 10
593.70376005
 20
598.54789601
  0
VERTEX
  8
10
 10
594.23345443
 20
598.62490285
  0
VERTEX
  8
10
 10
594.76008763
 20
598.70028794
  0
VERTEX
  8
10
 10
595.28358223
 20
598.77405091
  0
VERTEX
  8
10
 10
595.80386080
 20
598.84619140
  0
VERTEX
  8
10
 10
596.32084592
 20
598.91670905
  0
VERTEX
  8
10
 10
596.83446017
 20
598.98560346
  0
VERTEX
  8
10
 10
597.34462611
 20
599.05287425
  0
VERTEX
  8
10
 10
597.85126636
 20
599.11852105
  0
VERTEX
  8
10
 10
598.35430346
 20
599.18254348
  0
VERTEX
  8
10
 10
598.85366000
 20
599.24494120
  0
VERTEX
  8
10
 10
599.34925858
 20
599.30571377
  0
VERTEX
  8
10
 10
599.84102173
 20
599.36486088
  0
VERTEX
  8
10
 10
600.32887205
 20
599.42238212
  0
VERTEX
  8
10
 10
600.81273213
 20
599.47827711
  0
VERTEX
  8
10
 10
601.29252453
 20
599.53254549
  0
VERTEX
  8
10
 10
601.76817187
 20
599.58518687
  0
VERTEX
  8
10
 10
602.23959665
 20
599.63620089
  0
VERTEX
  8
10
 10
602.70672151
 20
599.68558713
  0
VERTEX
  8
10
 10
603.16946900
 20
599.73334528
  0
VERTEX
  8
10
 10
603.62776172
 20
599.77947493
  0
VERTEX
  8
10
 10
604.08152225
 20
599.82397571
  0
VERTEX
  8
10
 10
604.53067313
 20
599.86684725
  0
VERTEX
  8
10
 10
604.97513699
 20
599.90808917
  0
VERTEX
  8
10
 10
605.41483635
 20
599.94770106
  0
VERTEX
  8
10
 10
605.56033066
 20
599.94458653
  0
VERTEX
  8
10
 10
605.56033066
 20
587.78931395
  0
VERTEX
  8
10
 10
605.54673368
 20
587.36251053
  0
VERTEX
  8
10
 10
605.53116365
 20
586.92822745
  0
VERTEX
  8
10
 10
605.51244503
 20
586.48707815
  0
VERTEX
  8
10
 10
605.48940216
 20
586.03967591
  0
VERTEX
  8
10
 10
605.46085942
 20
585.58663415
  0
VERTEX
  8
10
 10
605.42564125
 20
585.12856620
  0
VERTEX
  8
10
 10
605.38257196
 20
584.66608543
  0
VERTEX
  8
10
 10
605.33047599
 20
584.19980522
  0
VERTEX
  8
10
 10
605.26817769
 20
583.73033893
  0
VERTEX
  8
10
 10
605.19450147
 20
583.25829989
  0
VERTEX
  8
10
 10
605.10827170
 20
582.78430152
  0
VERTEX
  8
10
 10
605.00831276
 20
582.30895716
  0
VERTEX
  8
10
 10
604.89344906
 20
581.83288014
  0
VERTEX
  8
10
 10
604.76250500
 20
581.35668388
  0
VERTEX
  8
10
 10
604.61430491
 20
580.88098172
  0
VERTEX
  8
10
 10
604.44767321
 20
580.40638701
  0
VERTEX
  8
10
 10
604.26143427
 20
579.93351315
  0
VERTEX
  8
10
 10
604.05441251
 20
579.46297348
  0
VERTEX
  8
10
 10
603.82543229
 20
578.99538132
  0
VERTEX
  8
10
 10
603.57331797
 20
578.53135011
  0
VERTEX
  8
10
 10
603.29689398
 20
578.07149318
  0
VERTEX
  8
10
 10
602.99498470
 20
577.61642391
  0
VERTEX
  8
10
 10
602.66641450
 20
577.16675565
  0
VERTEX
  8
10
 10
602.31000774
 20
576.72310175
  0
VERTEX
  8
10
 10
601.92458885
 20
576.28607560
  0
VERTEX
  8
10
 10
601.50898222
 20
575.85629054
  0
VERTEX
  8
10
 10
601.06201220
 20
575.43435996
  0
VERTEX
  8
10
 10
600.58250320
 20
575.02089721
  0
VERTEX
  8
10
 10
600.06927957
 20
574.61651565
  0
VERTEX
  8
10
 10
599.52116577
 20
574.22182868
  0
VERTEX
  8
10
 10
598.93698610
 20
573.83744960
  0
VERTEX
  8
10
 10
598.42818398
 20
573.52760893
  0
VERTEX
  8
10
 10
598.12621434
 20
573.35097145
  0
VERTEX
  8
10
 10
597.81592171
 20
573.17777560
  0
VERTEX
  8
10
 10
597.49774050
 20
573.00817476
  0
VERTEX
  8
10
 10
597.17210524
 20
572.84232225
  0
VERTEX
  8
10
 10
596.83945036
 20
572.68037142
  0
VERTEX
  8
10
 10
596.50021034
 20
572.52247562
  0
VERTEX
  8
10
 10
596.15481966
 20
572.36878817
  0
VERTEX
  8
10
 10
595.80371274
 20
572.21946241
  0
VERTEX
  8
10
 10
595.44732408
 20
572.07465168
  0
VERTEX
  8
10
 10
595.08608813
 20
571.93450936
  0
VERTEX
  8
10
 10
594.72043939
 20
571.79918874
  0
VERTEX
  8
10
 10
594.35081229
 20
571.66884321
  0
VERTEX
  8
10
 10
593.97764131
 20
571.54362606
  0
VERTEX
  8
10
 10
593.60136092
 20
571.42369068
  0
VERTEX
  8
10
 10
593.22240557
 20
571.30919037
  0
VERTEX
  8
10
 10
593.19741331
 20
571.30204981
  0
SEQEND
  8
10
  0
POLYLINE
  8
10
 62
     4
 66
     1
  0
VERTEX
  8
10
 10
432.03206164
 20
571.30204981
  0
VERTEX
  8
10
 10
430.94949664
 20
571.03201658
  0
VERTEX
  8
10
 10
429.88166655
 20
570.81025044
  0
VERTEX
  8
10
 10
428.78436664
 20
570.59434545
  0
VERTEX
  8
10
 10
427.70180164
 20
570.43895476
  0
VERTEX
  8
10
 10
427.45908949
 20
570.41493966
  0
VERTEX
  8
10
 10
427.08489622
 20
570.38504952
  0
VERTEX
  8
10
 10
426.71411055
 20
570.36274124
  0
VERTEX
  8
10
 10
426.34716692
 20
570.34816815
  0
VERTEX
  8
10
 10
425.98449979
 20
570.34148362
  0
VERTEX
  8
10
 10
425.38008196
 20
570.34784887
  0
VERTEX
  8
10
 10
424.66252214
 20
570.38343249
  0
VERTEX
  8
10
 10
423.95679296
 20
570.44908801
  0
VERTEX
  8
10
 10
423.26368750
 20
570.54440647
  0
VERTEX
  8
10
 10
422.58399875
 20
570.66897901
  0
VERTEX
  8
10
 10
421.91851972
 20
570.82239669
  0
VERTEX
  8
10
 10
421.26804345
 20
571.00425064
  0
VERTEX
  8
10
 10
420.63336293
 20
571.21413187
  0
VERTEX
  8
10
 10
420.01527114
 20
571.45163156
  0
VERTEX
  8
10
 10
419.41456116
 20
571.71634076
  0
VERTEX
  8
10
 10
418.83202598
 20
572.00785054
  0
VERTEX
  8
10
 10
418.26845860
 20
572.32575202
  0
VERTEX
  8
10
 10
417.72465202
 20
572.66963627
  0
VERTEX
  8
10
 10
417.20139931
 20
573.03909443
  0
VERTEX
  8
10
 10
416.69949342
 20
573.43371752
  0
VERTEX
  8
10
 10
416.21972741
 20
573.85309667
  0
VERTEX
  8
10
 10
415.76289427
 20
574.29682298
  0
VERTEX
  8
10
 10
415.32978704
 20
574.76448754
  0
VERTEX
  8
10
 10
414.92119869
 20
575.25568140
  0
VERTEX
  8
10
 10
414.53792223
 20
575.76999568
  0
VERTEX
  8
10
 10
414.18075076
 20
576.30702147
  0
VERTEX
  8
10
 10
413.85047718
 20
576.86634987
  0
VERTEX
  8
10
 10
413.54789457
 20
577.44757194
  0
VERTEX
  8
10
 10
413.27379596
 20
578.05027881
  0
VERTEX
  8
10
 10
413.02897431
 20
578.67406154
  0
VERTEX
  8
10
 10
412.81422266
 20
579.31851124
  0
VERTEX
  8
10
 10
412.63033401
 20
579.98321900
  0
VERTEX
  8
10
 10
412.47810141
 20
580.66777588
  0
VERTEX
  8
10
 10
412.35831782
 20
581.37177298
  0
VERTEX
  8
10
 10
412.27177630
 20
582.09480143
  0
VERTEX
  8
10
 10
412.21926985
 20
582.83645231
  0
VERTEX
  8
10
 10
412.20159148
 20
583.59631666
  0
VERTEX
  8
10
 10
412.23620544
 20
584.64523953
  0
VERTEX
  8
10
 10
412.33766133
 20
585.64063498
  0
VERTEX
  8
10
 10
412.50238003
 20
586.58398420
  0
VERTEX
  8
10
 10
412.72678244
 20
587.47676834
  0
VERTEX
  8
10
 10
413.00728953
 20
588.32046854
  0
VERTEX
  8
10
 10
413.34032215
 20
589.11656603
  0
VERTEX
  8
10
 10
413.72230125
 20
589.86654195
  0
VERTEX
  8
10
 10
414.14964777
 20
590.57187747
  0
VERTEX
  8
10
 10
414.61878256
 20
591.23405376
  0
VERTEX
  8
10
 10
415.12612659
 20
591.85455196
  0
VERTEX
  8
10
 10
415.66810078
 20
592.43485331
  0
VERTEX
  8
10
 10
416.24112599
 20
592.97643889
  0
VERTEX
  8
10
 10
416.84162321
 20
593.48078994
  0
VERTEX
  8
10
 10
417.46601327
 20
593.94938761
  0
VERTEX
  8
10
 10
418.11071716
 20
594.38371303
  0
VERTEX
  8
10
 10
418.77215577
 20
594.78524742
  0
VERTEX
  8
10
 10
419.44675000
 20
595.15547195
  0
VERTEX
  8
10
 10
420.13092078
 20
595.49586774
  0
VERTEX
  8
10
 10
420.82108902
 20
595.80791600
  0
VERTEX
  8
10
 10
421.51367565
 20
596.09309789
  0
VERTEX
  8
10
 10
422.20510155
 20
596.35289455
  0
VERTEX
  8
10
 10
422.89178768
 20
596.58878720
  0
VERTEX
  8
10
 10
423.57015493
 20
596.80225698
  0
VERTEX
  8
10
 10
424.23662421
 20
596.99478507
  0
VERTEX
  8
10
 10
424.88761647
 20
597.16785260
  0
VERTEX
  8
10
 10
425.51955259
 20
597.32294081
  0
VERTEX
  8
10
 10
426.12885348
 20
597.46153081
  0
VERTEX
  8
10
 10
426.71194008
 20
597.58510378
  0
VERTEX
  8
10
 10
427.26523331
 20
597.69514091
  0
VERTEX
  8
10
 10
427.70180164
 20
597.77741505
  0
VERTEX
  8
10
 10
428.78436664
 20
597.97887606
  0
VERTEX
  8
10
 10
429.86693164
 20
598.14948945
  0
VERTEX
  8
10
 10
432.03206164
 20
598.47315460
  0
VERTEX
  8
10
 10
432.53840838
 20
598.54789601
  0
VERTEX
  8
10
 10
433.06810275
 20
598.62490285
  0
VERTEX
  8
10
 10
433.59473596
 20
598.70028794
  0
VERTEX
  8
10
 10
434.11823056
 20
598.77405091
  0
VERTEX
  8
10
 10
434.63850913
 20
598.84619140
  0
VERTEX
  8
10
 10
435.15549425
 20
598.91670905
  0
VERTEX
  8
10
 10
435.66910850
 20
598.98560346
  0
VERTEX
  8
10
 10
436.17927444
 20
599.05287425
  0
VERTEX
  8
10
 10
436.68591469
 20
599.11852105
  0
VERTEX
  8
10
 10
437.18895179
 20
599.18254348
  0
VERTEX
  8
10
 10
437.68830833
 20
599.24494120
  0
VERTEX
  8
10
 10
438.18390691
 20
599.30571377
  0
VERTEX
  8
10
 10
438.67567005
 20
599.36486088
  0
VERTEX
  8
10
 10
439.16352038
 20
599.42238212
  0
VERTEX
  8
10
 10
439.64738046
 20
599.47827711
  0
VERTEX
  8
10
 10
440.12717286
 20
599.53254549
  0
VERTEX
  8
10
 10
440.60282020
 20
599.58518687
  0
VERTEX
  8
10
 10
441.07424498
 20
599.63620089
  0
VERTEX
  8
10
 10
441.54136984
 20
599.68558713
  0
VERTEX
  8
10
 10
442.00411733
 20
599.73334528
  0
VERTEX
  8
10
 10
442.46241005
 20
599.77947493
  0
VERTEX
  8
10
 10
442.91617058
 20
599.82397571
  0
VERTEX
  8
10
 10
443.36532146
 20
599.86684725
  0
VERTEX
  8
10
 10
443.80978532
 20
599.90808917
  0
VERTEX
  8
10
 10
444.24948468
 20
599.94770106
  0
VERTEX
  8
10
 10
444.39497899
 20
599.94458653
  0
VERTEX
  8
10
 10
444.39497899
 20
587.78931395
  0
VERTEX
  8
10
 10
444.38138201
 20
587.36251053
  0
VERTEX
  8
10
 10
444.36581198
 20
586.92822745
  0
VERTEX
  8
10
 10
444.34709336
 20
586.48707815
  0
VERTEX
  8
10
 10
444.32405049
 20
586.03967591
  0
VERTEX
  8
10
 10
444.29550775
 20
585.58663415
  0
VERTEX
  8
10
 10
444.26028958
 20
585.12856620
  0
VERTEX
  8
10
 10
444.21722029
 20
584.66608543
  0
VERTEX
  8
10
 10
444.16512432
 20
584.19980522
  0
VERTEX
  8
10
 10
444.10282602
 20
583.73033893
  0
VERTEX
  8
10
 10
444.02914979
 20
583.25829989
  0
VERTEX
  8
10
 10
443.94292003
 20
582.78430152
  0
VERTEX
  8
10
 10
443.84296109
 20
582.30895716
  0
VERTEX
  8
10
 10
443.72809739
 20
581.83288014
  0
VERTEX
  8
10
 10
443.59715333
 20
581.35668388
  0
VERTEX
  8
10
 10
443.44895324
 20
580.88098172
  0
VERTEX
  8
10
 10
443.28232154
 20
580.40638701
  0
VERTEX
  8
10
 10
443.09608260
 20
579.93351315
  0
VERTEX
  8
10
 10
442.88906084
 20
579.46297348
  0
VERTEX
  8
10
 10
442.66008062
 20
578.99538132
  0
VERTEX
  8
10
 10
442.40796630
 20
578.53135011
  0
VERTEX
  8
10
 10
442.13154230
 20
578.07149318
  0
VERTEX
  8
10
 10
441.82963303
 20
577.61642391
  0
VERTEX
  8
10
 10
441.50106283
 20
577.16675565
  0
VERTEX
  8
10
 10
441.14465607
 20
576.72310175
  0
VERTEX
  8
10
 10
440.75923718
 20
576.28607560
  0
VERTEX
  8
10
 10
440.34363055
 20
575.85629054
  0
VERTEX
  8
10
 10
439.89666053
 20
575.43435996
  0
VERTEX
  8
10
 10
439.41715153
 20
575.02089721
  0
VERTEX
  8
10
 10
438.90392790
 20
574.61651565
  0
VERTEX
  8
10
 10
438.35581410
 20
574.22182868
  0
VERTEX
  8
10
 10
437.77163443
 20
573.83744960
  0
VERTEX
  8
10
 10
437.26283231
 20
573.52760893
  0
VERTEX
  8
10
 10
436.96086267
 20
573.35097145
  0
VERTEX
  8
10
 10
436.65057004
 20
573.17777560
  0
VERTEX
  8
10
 10
436.33238883
 20
573.00817476
  0
VERTEX
  8
10
 10
436.00675356
 20
572.84232225
  0
VERTEX
  8
10
 10
435.67409869
 20
572.68037142
  0
VERTEX
  8
10
 10
435.33485867
 20
572.52247562
  0
VERTEX
  8
10
 10
434.98946798
 20
572.36878817
  0
VERTEX
  8
10
 10
434.63836106
 20
572.21946241
  0
VERTEX
  8
10
 10
434.28197241
 20
572.07465168
  0
VERTEX
  8
10
 10
433.92073646
 20
571.93450936
  0
VERTEX
  8
10
 10
433.55508772
 20
571.79918874
  0
VERTEX
  8
10
 10
433.18546062
 20
571.66884321
  0
VERTEX
  8
10
 10
432.81228964
 20
571.54362606
  0
VERTEX
  8
10
 10
432.43600925
 20
571.42369068
  0
VERTEX
  8
10
 10
432.05705390
 20
571.30919037
  0
VERTEX
  8
10
 10
432.03206164
 20
571.30204981
  0
SEQEND
  8
10
  0
POLYLINE
  8
10
 62
     4
 66
     1
  0
VERTEX
  8
10
 10
414.09719149
 20
656.31488384
  0
VERTEX
  8
10
 10
424.78207628
 20
656.31488384
  0
VERTEX
  8
10
 10
424.78207628
 20
667.27177536
  0
VERTEX
  8
10
 10
414.09719149
 20
667.27177536
  0
VERTEX
  8
10
 10
414.09719149
 20
656.31488384
  0
SEQEND
  8
10
  0
POLYLINE
  8
10
 62
     4
 66
     1
  0
VERTEX
  8
10
 10
435.46845069
 20
656.31488384
  0
VERTEX
  8
10
 10
446.15333260
 20
656.31488384
  0
VERTEX
  8
10
 10
446.15333260
 20
667.27177536
  0
VERTEX
  8
10
 10
435.46845069
 20
667.27177536
  0
VERTEX
  8
10
 10
435.46845069
 20
656.31488384
  0
SEQEND
  8
10
  0
LINE
  8
10
 62
     4
 10
378.83066528
 20
576.90491817
 11
386.94564659
 21
585.01989948
  0
LINE
  8
10
 62
     4
 10
412.97744393
 20
611.05169682
 11
413.43276261
 21
611.50701550
  0
LINE
  8
10
 62
     4
 10
429.32562567
 20
627.39987856
 11
435.69639531
 21
633.77064820
  0
LINE
  8
10
 62
     4
 10
378.83066528
 20
579.19594414
 11
386.94564659
 21
587.31092546
  0
LINE
  8
10
 62
     4
 10
410.68641796
 20
611.05169682
 11
413.57749724
 21
613.94277610
  0
LINE
  8
10
 62
     4
 10
426.85439345
 20
627.21967231
 11
433.60480220
 21
633.97008106
  0
LINE
  8
10
 62
     4
 10
378.83066528
 20
581.48697011
 11
386.94564659
 21
589.60195143
  0
LINE
  8
10
 62
     4
 10
408.39539199
 20
611.05169682
 11
414.01721440
 21
616.67351923
  0
LINE
  8
10
 62
     4
 10
424.06462778
 20
626.72093262
 11
431.38880990
 21
634.04511473
  0
LINE
  8
10
 62
     4
 10
378.83066528
 20
583.77799608
 11
386.94564659
 21
591.89297740
  0
LINE
  8
10
 62
     4
 10
406.10436602
 20
611.05169682
 11
415.34042272
 21
620.28775352
  0
LINE
  8
10
 62
     4
 10
420.36490326
 20
625.31223406
 11
429.02153914
 21
633.96886994
  0
LINE
  8
10
 62
     4
 10
378.83066528
 20
586.06902205
 11
386.94564659
 21
594.18400337
  0
LINE
  8
10
 62
     4
 10
405.32232646
 20
612.56068323
 11
426.47298342
 21
633.71134019
  0
LINE
  8
10
 62
     4
 10
378.83066528
 20
588.36004802
 11
386.94564659
 21
596.47502934
  0
LINE
  8
10
 62
     4
 10
405.50249709
 20
615.03187984
 11
423.69441357
 21
633.22379632
  0
LINE
  8
10
 62
     4
 10
378.83066528
 20
590.65107399
 11
386.94564659
 21
598.76605531
  0
LINE
  8
10
 62
     4
 10
406.02528338
 20
617.84569209
 11
420.55121649
 21
632.37162520
  0
LINE
  8
10
 62
     4
 10
444.49447513
 20
656.31488384
 11
446.15333260
 21
657.97374131
  0
LINE
  8
10
 62
     4
 10
378.83066528
 20
592.94209997
 11
386.94564659
 21
601.05708128
  0
LINE
  8
10
 62
     4
 10
407.24906723
 20
621.36050191
 11
416.67606871
 21
630.78750340
  0
LINE
  8
10
 62
     4
 10
442.20344916
 20
656.31488384
 11
446.15333260
 21
660.26476728
  0
LINE
  8
10
 62
     4
 10
378.83066528
 20
595.23312594
 11
386.94564659
 21
603.34810725
  0
LINE
  8
10
 62
     4
 10
439.91242318
 20
656.31488384
 11
446.15333260
 21
662.55579325
  0
LINE
  8
10
 62
     4
 10
378.83066528
 20
597.52415191
 11
386.94564659
 21
605.63913322
  0
LINE
  8
10
 62
     4
 10
437.62139721
 20
656.31488384
 11
446.15333260
 21
664.84681923
  0
LINE
  8
10
 62
     4
 10
344.08146171
 20
565.06597431
 11
344.74366609
 21
565.72817869
  0
LINE
  8
10
 62
     4
 10
378.83066528
 20
599.81517788
 11
386.94564659
 21
607.93015919
  0
LINE
  8
10
 62
     4
 10
435.46845069
 20
656.45296329
 11
446.15333260
 21
667.13784520
  0
LINE
  8
10
 62
     4
 10
341.79043573
 20
565.06597431
 11
344.74366609
 21
568.01920467
  0
LINE
  8
10
 62
     4
 10
378.83066528
 20
602.10620385
 11
386.94564659
 21
610.22118517
  0
LINE
  8
10
 62
     4
 10
435.46845069
 20
658.74398926
 11
443.99623679
 21
667.27177536
  0
LINE
  8
10
 62
     4
 10
339.49940976
 20
565.06597431
 11
344.74366609
 21
570.31023064
  0
LINE
  8
10
 62
     4
 10
378.84289872
 20
604.40946327
 11
386.90529657
 21
612.47186111
  0
LINE
  8
10
 62
     4
 10
435.46845069
 20
661.03501523
 11
441.70521082
 21
667.27177536
  0
LINE
  8
10
 62
     4
 10
337.20838379
 20
565.06597431
 11
344.74366609
 21
572.60125661
  0
LINE
  8
10
 62
     4
 10
378.88472124
 20
606.74231176
 11
386.81986802
 21
614.67745854
  0
LINE
  8
10
 62
     4
 10
435.46845069
 20
663.32604120
 11
439.41418485
 21
667.27177536
  0
LINE
  8
10
 62
     4
 10
336.76493730
 20
566.91355379
 11
344.74366609
 21
574.89228258
  0
LINE
  8
10
 62
     4
 10
378.88746855
 20
609.03608503
 11
386.65930110
 21
616.80791758
  0
LINE
  8
10
 62
     4
 10
435.46845069
 20
665.61706717
 11
437.12315888
 21
667.27177536
  0
LINE
  8
10
 62
     4
 10
336.76493730
 20
569.20457976
 11
344.74366609
 21
577.18330855
  0
LINE
  8
10
 62
     4
 10
378.82731072
 20
611.26695317
 11
386.39095106
 21
618.83059351
  0
LINE
  8
10
 62
     4
 10
423.87524139
 20
656.31488384
 11
424.78207628
 21
657.22171874
  0
LINE
  8
10
 62
     4
 10
336.76493730
 20
571.49560573
 11
344.74366609
 21
579.47433452
  0
LINE
  8
10
 62
     4
 10
378.68507610
 20
613.41574453
 11
385.99846447
 21
620.72913290
  0
LINE
  8
10
 62
     4
 10
421.58421542
 20
656.31488384
 11
424.78207628
 21
659.51274471
  0
LINE
  8
10
 62
     4
 10
336.76493730
 20
573.78663170
 11
344.74366609
 21
581.76536049
  0
LINE
  8
10
 62
     4
 10
378.43459830
 20
615.45629270
 11
385.47267578
 21
622.49437017
  0
LINE
  8
10
 62
     4
 10
419.29318944
 20
656.31488384
 11
424.78207628
 21
661.80377068
  0
LINE
  8
10
 62
     4
 10
336.76493730
 20
576.07765767
 11
344.74366609
 21
584.05638646
  0
LINE
  8
10
 62
     4
 10
378.05769838
 20
617.37041875
 11
384.81323645
 21
624.12595682
  0
LINE
  8
10
 62
     4
 10
417.00216347
 20
656.31488384
 11
424.78207628
 21
664.09479665
  0
LINE
  8
10
 62
     4
 10
336.76493730
 20
578.36868364
 11
344.74366609
 21
586.34741243
  0
LINE
  8
10
 62
     4
 10
377.53918568
 20
619.14293202
 11
384.02217574
 21
625.62592208
  0
LINE
  8
10
 62
     4
 10
414.71113750
 20
656.31488384
 11
424.78207628
 21
666.38582262
  0
LINE
  8
10
 62
     4
 10
336.76493730
 20
580.65970961
 11
344.74366609
 21
588.63843840
  0
LINE
  8
10
 62
     4
 10
376.86020886
 20
620.75498118
 11
383.10515050
 21
626.99992281
  0
LINE
  8
10
 62
     4
 10
414.09719149
 20
657.99196380
 11
423.37700305
 21
667.27177536
  0
LINE
  8
10
 62
     4
 10
336.76493730
 20
582.95073559
 11
344.74366609
 21
590.92946438
  0
LINE
  8
10
 62
     4
 10
376.02118347
 20
622.20698175
 11
382.06716270
 21
628.25296098
  0
LINE
  8
10
 62
     4
 10
414.09719149
 20
660.28298977
 11
421.08597708
 21
667.27177536
  0
LINE
  8
10
 62
     4
 10
336.76493730
 20
585.24176156
 11
344.74366609
 21
593.22049035
  0
LINE
  8
10
 62
     4
 10
375.01731673
 20
623.49414099
 11
380.91094469
 21
629.38776895
  0
LINE
  8
10
 62
     4
 10
414.09719149
 20
662.57401574
 11
418.79495111
 21
667.27177536
  0
LINE
  8
10
 62
     4
 10
336.76493730
 20
587.53278753
 11
344.74366609
 21
595.51151632
  0
LINE
  8
10
 62
     4
 10
373.84420849
 20
624.61205871
 11
379.63891244
 21
630.40676266
  0
LINE
  8
10
 62
     4
 10
414.09719149
 20
664.86504171
 11
416.50392514
 21
667.27177536
  0
LINE
  8
10
 62
     4
 10
336.76493730
 20
589.82381350
 11
344.74366609
 21
597.80254229
  0
LINE
  8
10
 62
     4
 10
372.51320739
 20
625.57208358
 11
378.25188199
 21
631.31075819
  0
LINE
  8
10
 62
     4
 10
414.09719149
 20
667.15606768
 11
414.21289917
 21
667.27177536
  0
LINE
  8
10
 62
     4
 10
336.76493730
 20
592.11483947
 11
344.74366609
 21
600.09356826
  0
LINE
  8
10
 62
     4
 10
371.03390120
 20
626.38380337
 11
376.74940534
 21
632.09930751
  0
LINE
  8
10
 62
     4
 10
336.76493730
 20
594.40586544
 11
344.74366609
 21
602.38459423
  0
LINE
  8
10
 62
     4
 10
369.42867644
 20
627.06960458
 11
375.12967322
 21
632.77060136
  0
LINE
  8
10
 62
     4
 10
336.76493730
 20
596.69689141
 11
344.74366609
 21
604.67562020
  0
LINE
  8
10
 62
     4
 10
367.63511832
 20
627.56707243
 11
373.38891428
 21
633.32086839
  0
LINE
  8
10
 62
     4
 10
336.76493730
 20
598.98791738
 11
344.74366609
 21
606.96664617
  0
LINE
  8
10
 62
     4
 10
365.64499972
 20
627.86797980
 11
371.52160577
 21
633.74458585
  0
LINE
  8
10
 62
     4
 10
336.76493730
 20
601.27894335
 11
344.74366609
 21
609.25767214
  0
LINE
  8
10
 62
     4
 10
363.44304994
 20
627.95705599
 11
369.51914111
 21
634.03314716
  0
LINE
  8
10
 62
     4
 10
336.76493730
 20
603.56996932
 11
344.78374559
 21
611.58877761
  0
LINE
  8
10
 62
     4
 10
360.99204605
 20
627.79707807
 11
367.36699370
 21
634.17202572
  0
LINE
  8
10
 62
     4
 10
336.76493730
 20
605.86099530
 11
344.98665720
 21
614.08271519
  0
LINE
  8
10
 62
     4
 10
358.19238003
 20
627.28843802
 11
365.04450283
 21
634.14056082
  0
LINE
  8
10
 62
     4
 10
336.76493730
 20
608.15202127
 11
345.64281620
 21
617.02990016
  0
LINE
  8
10
 62
     4
 10
354.78342854
 20
626.17051251
 11
362.54637495
 21
633.93345891
  0
LINE
  8
10
 62
     4
 10
336.76493730
 20
610.44304724
 11
359.78850774
 21
633.46661767
  0
LINE
  8
10
 62
     4
 10
336.76493730
 20
612.73407321
 11
356.63773028
 21
632.60686619
  0
LINE
  8
10
 62
     4
 10
336.76493730
 20
615.02509918
 11
352.68921754
 21
630.94937942
  0
LINE
  8
10
 62
     4
 10
336.76493730
 20
617.31612515
 11
344.74366609
 21
625.29485394
  0
LINE
  8
10
 62
     4
 10
336.76493730
 20
619.60715112
 11
344.74366609
 21
627.58587991
  0
LINE
  8
10
 62
     4
 10
336.76493730
 20
621.89817709
 11
344.74366609
 21
629.87690588
  0
LINE
  8
10
 62
     4
 10
336.76493730
 20
624.18920306
 11
344.74366609
 21
632.16793185
  0
LINE
  8
10
 62
     4
 10
336.76493730
 20
626.48022904
 11
344.74366609
 21
634.45895783
  0
LINE
  8
10
 62
     4
 10
336.76493730
 20
628.77125501
 11
344.74366609
 21
636.74998380
  0
LINE
  8
10
 62
     4
 10
336.76493730
 20
631.06228098
 11
344.74366609
 21
639.04100977
  0
LINE
  8
10
 62
     4
 10
336.76493730
 20
633.35330695
 11
344.74366609
 21
641.33203574
  0
LINE
  8
10
 62
     4
 10
336.76493730
 20
635.64433292
 11
344.74366609
 21
643.62306171
  0
LINE
  8
10
 62
     4
 10
336.76493730
 20
637.93535889
 11
344.74366609
 21
645.91408768
  0
LINE
  8
10
 62
     4
 10
336.76493730
 20
640.22638486
 11
344.74366609
 21
648.20511365
  0
LINE
  8
10
 62
     4
 10
336.76493730
 20
642.51741083
 11
344.74366609
 21
650.49613962
  0
LINE
  8
10
 62
     4
 10
336.76493730
 20
644.80843680
 11
344.74366609
 21
652.78716559
  0
LINE
  8
10
 62
     4
 10
336.76493730
 20
647.09946277
 11
344.74366609
 21
655.07819156
  0
LINE
  8
10
 62
     4
 10
336.76493730
 20
649.39048875
 11
344.74366609
 21
657.36921754
  0
LINE
  8
10
 62
     4
 10
336.76493730
 20
651.68151472
 11
344.74366609
 21
659.66024351
  0
LINE
  8
10
 62
     4
 10
336.76493730
 20
653.97254069
 11
344.74366609
 21
661.95126948
  0
LINE
  8
10
 62
     4
 10
336.76493730
 20
656.26356666
 11
344.74366609
 21
664.24229545
  0
LINE
  8
10
 62
     4
 10
336.76493730
 20
658.55459263
 11
344.74366609
 21
666.53332142
  0
LINE
  8
10
 62
     4
 10
336.76493730
 20
660.84561860
 11
343.19109337
 21
667.27177467
  0
LINE
  8
10
 62
     4
 10
336.76493730
 20
663.13664457
 11
340.90006740
 21
667.27177467
  0
LINE
  8
10
 62
     4
 10
336.76493730
 20
665.42767054
 11
338.60904143
 21
667.27177467
  0
LINE
  8
10
 62
     4
 10
378.83066528
 20
574.61389220
 11
386.94564659
 21
582.72887351
  0
LINE
  8
10
 62
     4
 10
431.60116550
 20
627.38439242
 11
437.67683791
 21
633.46006483
  0
LINE
  8
10
 62
     4
 10
378.83066528
 20
572.32286623
 11
386.94564659
 21
580.43784754
  0
LINE
  8
10
 62
     4
 10
433.71309899
 20
627.20529994
 11
439.55017617
 21
633.04237712
  0
LINE
  8
10
 62
     4
 10
378.83066528
 20
570.03184025
 11
386.94564659
 21
578.14682157
  0
LINE
  8
10
 62
     4
 10
435.65013144
 20
626.85130642
 11
441.31601624
 21
632.51719122
  0
LINE
  8
10
 62
     4
 10
378.83066528
 20
567.74081428
 11
386.94564659
 21
575.85579560
  0
LINE
  8
10
 62
     4
 10
437.39881103
 20
626.30896004
 11
442.97083263
 21
631.88098163
  0
LINE
  8
10
 62
     4
 10
378.83066528
 20
565.44978831
 11
386.94564659
 21
573.56476963
  0
LINE
  8
10
 62
     4
 10
405.93052940
 20
592.54965244
 11
412.78616097
 21
599.40528400
  0
LINE
  8
10
 62
     4
 10
438.95893519
 20
625.57805823
 11
444.50801453
 21
631.12713756
  0
LINE
  8
10
 62
     4
 10
380.73787724
 20
565.06597431
 11
386.94564659
 21
571.27374366
  0
LINE
  8
10
 62
     4
 10
404.29951884
 20
588.62761590
 11
416.97289465
 21
601.30099172
  0
LINE
  8
10
 62
     4
 10
440.32510142
 20
624.65319849
 11
445.91753146
 21
630.24562853
  0
LINE
  8
10
 62
     4
 10
383.02890321
 20
565.06597431
 11
386.94564659
 21
568.98271769
  0
LINE
  8
10
 62
     4
 10
403.71723085
 20
585.75430194
 11
420.22552902
 21
602.26260011
  0
LINE
  8
10
 62
     4
 10
441.48553732
 20
623.52260841
 11
447.18519667
 21
629.22226776
  0
LINE
  8
10
 62
     4
 10
385.31992918
 20
565.06597431
 11
386.94564659
 21
566.69169172
  0
LINE
  8
10
 62
     4
 10
403.55123624
 20
583.29728136
 11
423.16110864
 21
602.90715376
  0
LINE
  8
10
 62
     4
 10
442.44178657
 20
622.18783169
 11
448.30562958
 21
628.05167470
  0
LINE
  8
10
 62
     4
 10
403.63810809
 20
581.09312724
 11
425.93718914
 21
603.39220829
  0
LINE
  8
10
 62
     4
 10
443.19744143
 20
620.65246058
 11
449.29073527
 21
626.74575442
  0
LINE
  8
10
 62
     4
 10
403.91559520
 20
579.07958838
 11
412.93298520
 21
588.09697838
  0
LINE
  8
10
 62
     4
 10
420.49771419
 20
595.66170737
 11
428.62387245
 21
603.78786563
  0
LINE
  8
10
 62
     4
 10
443.74390433
 20
618.90789751
 11
450.12863803
 21
625.29263121
  0
LINE
  8
10
 62
     4
 10
404.34262053
 20
577.21558774
 11
412.28885860
 21
585.16182581
  0
LINE
  8
10
 62
     4
 10
424.07518033
 20
596.94814754
 11
431.26325335
 21
604.13622056
  0
LINE
  8
10
 62
     4
 10
444.10316256
 20
616.97612977
 11
450.81619949
 21
623.68916669
  0
LINE
  8
10
 62
     4
 10
404.89710281
 20
575.47904405
 11
412.22159986
 21
582.80354110
  0
LINE
  8
10
 62
     4
 10
427.07545774
 20
597.65739897
 11
433.86283050
 21
604.44477174
  0
LINE
  8
10
 62
     4
 10
444.29824189
 20
614.88018312
 11
451.35424670
 21
621.93618794
  0
LINE
  8
10
 62
     4
 10
405.56826015
 20
573.85917542
 11
412.46338028
 21
580.75429555
  0
LINE
  8
10
 62
     4
 10
429.85701062
 20
598.14792588
 11
436.44806516
 21
604.73898042
  0
LINE
  8
10
 62
     4
 10
444.38021228
 20
612.67112755
 11
451.74438074
 21
620.03529600
  0
LINE
  8
10
 62
     4
 10
406.35401337
 20
572.35390267
 11
412.94029390
 21
578.94018320
  0
LINE
  8
10
 62
     4
 10
432.54963949
 20
598.54952879
 11
439.03329981
 21
605.03318911
  0
LINE
  8
10
 62
     4
 10
444.39497899
 20
610.39486829
 11
452.00157685
 21
618.00146615
  0
LINE
  8
10
 62
     4
 10
465.07400128
 20
631.07389058
 11
466.55782623
 21
632.55771553
  0
LINE
  8
10
 62
     4
 10
407.25266276
 20
570.96152608
 11
413.61322237
 21
577.32208569
  0
LINE
  8
10
 62
     4
 10
435.21595583
 20
598.92481915
 11
441.61853447
 21
605.32739780
  0
LINE
  8
10
 62
     4
 10
444.39497899
 20
608.10384232
 11
452.14672935
 21
615.85559267
  0
LINE
  8
10
 62
     4
 10
465.60076775
 20
629.30963107
 11
468.84885220
 21
632.55771553
  0
LINE
  8
10
 62
     4
 10
408.27571549
 20
569.69355285
 11
414.46372208
 21
575.88155944
  0
LINE
  8
10
 62
     4
 10
437.84650232
 20
599.26433967
 11
452.22137386
 21
613.63921122
  0
LINE
  8
10
 62
     4
 10
466.12753422
 20
627.54537157
 11
471.13987818
 21
632.55771553
  0
LINE
  8
10
 62
     4
 10
409.39686086
 20
568.52367224
 11
415.47782565
 21
574.60463703
  0
LINE
  8
10
 62
     4
 10
440.44039993
 20
599.56721131
 11
452.23994164
 21
611.36675302
  0
LINE
  8
10
 62
     4
 10
466.65430068
 20
625.78111207
 11
473.43090415
 21
632.55771553
  0
LINE
  8
10
 62
     4
 10
410.62687804
 20
567.46266345
 11
416.64530232
 21
573.48108773
  0
LINE
  8
10
 62
     4
 10
442.99578999
 20
599.83157540
 11
452.23994164
 21
609.07572705
  0
LINE
  8
10
 62
     4
 10
467.18106715
 20
624.01685256
 11
474.13676635
 21
630.97255176
  0
LINE
  8
10
 62
     4
 10
411.98405362
 20
566.52881307
 11
417.96983298
 21
572.51459242
  0
LINE
  8
10
 62
     4
 10
444.39497899
 20
598.93973843
 11
452.23994164
 21
606.78470108
  0
LINE
  8
10
 62
     4
 10
467.70783362
 20
622.25259306
 11
474.63763719
 21
629.18239663
  0
LINE
  8
10
 62
     4
 10
413.47032209
 20
565.72405556
 11
419.44791123
 21
571.70164470
  0
LINE
  8
10
 62
     4
 10
444.39497899
 20
596.64871246
 11
452.23994164
 21
604.49367510
  0
LINE
  8
10
 62
     4
 10
468.23460009
 20
620.48833356
 11
475.13850804
 21
627.39224151
  0
LINE
  8
10
 62
     4
 10
415.09266266
 20
565.05537016
 11
421.09783051
 21
571.06053801
  0
LINE
  8
10
 62
     4
 10
444.39497899
 20
594.35768649
 11
452.23994164
 21
602.20264913
  0
LINE
  8
10
 62
     4
 10
468.76136656
 20
618.72407406
 11
475.63937888
 21
625.60208638
  0
LINE
  8
10
 62
     4
 10
416.85615475
 20
564.52783628
 11
422.93328138
 21
570.60496291
  0
LINE
  8
10
 62
     4
 10
444.39497899
 20
592.06666052
 11
452.23994164
 21
599.91162316
  0
LINE
  8
10
 62
     4
 10
469.28813303
 20
616.95981455
 11
476.14024972
 21
623.81193125
  0
LINE
  8
10
 62
     4
 10
418.77043029
 20
564.15108585
 11
424.98670098
 21
570.36735654
  0
LINE
  8
10
 62
     4
 10
444.39497899
 20
589.77563455
 11
452.23994164
 21
597.62059719
  0
LINE
  8
10
 62
     4
 10
469.81489949
 20
615.19555505
 11
476.64112057
 21
622.02177612
  0
LINE
  8
10
 62
     4
 10
420.83631391
 20
563.92594350
 11
427.31369623
 21
570.40332581
  0
LINE
  8
10
 62
     4
 10
444.38495235
 20
587.47458193
 11
452.19622629
 21
595.28585587
  0
LINE
  8
10
 62
     4
 10
470.34166596
 20
613.43129555
 11
477.14199141
 21
620.23162100
  0
LINE
  8
10
 62
     4
 10
423.05097651
 20
563.84958012
 11
430.04571661
 21
570.84432023
  0
LINE
  8
10
 62
     4
 10
444.25313487
 20
585.05173848
 11
452.14035428
 21
592.93895790
  0
LINE
  8
10
 62
     4
 10
470.86843243
 20
611.66703604
 11
477.64286226
 21
618.44146587
  0
LINE
  8
10
 62
     4
 10
425.39845623
 20
563.90603387
 11
433.14904701
 21
571.65662466
  0
LINE
  8
10
 62
     4
 10
443.85403357
 20
582.36161122
 11
452.08448228
 21
590.59205992
  0
LINE
  8
10
 62
     4
 10
471.39519890
 20
609.90277654
 11
478.14373310
 21
616.65131074
  0
LINE
  8
10
 62
     4
 10
427.91378071
 20
564.13033239
 11
437.38615748
 21
573.60270915
  0
LINE
  8
10
 62
     4
 10
442.51880669
 20
578.73535837
 11
452.02861028
 21
588.24516195
  0
LINE
  8
10
 62
     4
 10
471.92196537
 20
608.13851704
 11
478.64460394
 21
614.86115562
  0
LINE
  8
10
 62
     4
 10
430.68965712
 20
564.61518282
 11
451.97273828
 21
585.89826398
  0
LINE
  8
10
 62
     4
 10
472.44873183
 20
606.37425754
 11
479.14547479
 21
613.07100049
  0
LINE
  8
10
 62
     4
 10
433.83226695
 20
565.46676668
 11
451.91686627
 21
583.55136601
  0
LINE
  8
10
 62
     4
 10
472.97549830
 20
604.60999803
 11
479.64634563
 21
611.28084536
  0
LINE
  8
10
 62
     4
 10
438.04588365
 20
567.38935740
 11
451.86099427
 21
581.20446803
  0
LINE
  8
10
 62
     4
 10
473.50226477
 20
602.84573853
 11
480.14721647
 21
609.49069023
  0
LINE
  8
10
 62
     4
 10
444.33801002
 20
571.39045781
 11
451.86064312
 21
578.91309091
  0
LINE
  8
10
 62
     4
 10
474.02903124
 20
601.08147903
 11
480.64808732
 21
607.70053511
  0
LINE
  8
10
 62
     4
 10
444.35728518
 20
569.11870700
 11
451.91157145
 21
576.67299327
  0
LINE
  8
10
 62
     4
 10
474.55579771
 20
599.31721952
 11
481.14895816
 21
605.91037998
  0
LINE
  8
10
 62
     4
 10
507.76976502
 20
632.53118684
 11
507.79629371
 21
632.55771553
  0
LINE
  8
10
 62
     4
 10
444.75941334
 20
567.22980919
 11
451.96249979
 21
574.43289563
  0
LINE
  8
10
 62
     4
 10
475.08256417
 20
597.55296002
 11
481.64982901
 21
604.12022485
  0
LINE
  8
10
 62
     4
 10
506.68913860
 20
629.15953445
 11
510.08731968
 21
632.55771553
  0
LINE
  8
10
 62
     4
 10
445.76386590
 20
565.94323578
 11
452.05977015
 21
572.23914002
  0
LINE
  8
10
 62
     4
 10
475.60933064
 20
595.78870052
 11
482.15069985
 21
602.33006973
  0
LINE
  8
10
 62
     4
 10
505.60924848
 20
625.78861835
 11
512.37834565
 21
632.55771553
  0
LINE
  8
10
 62
     4
 10
447.38248129
 20
565.27082519
 11
452.32663985
 21
570.21498376
  0
LINE
  8
10
 62
     4
 10
476.13609711
 20
594.02444101
 11
482.65157069
 21
600.53991460
  0
LINE
  8
10
 62
     4
 10
504.52935836
 20
622.41770226
 11
514.66937163
 21
632.55771553
  0
LINE
  8
10
 62
     4
 10
449.47168313
 20
565.06900107
 11
452.95707457
 21
568.55439250
  0
LINE
  8
10
 62
     4
 10
476.66286358
 20
592.26018151
 11
483.15244154
 21
598.74975947
  0
LINE
  8
10
 62
     4
 10
503.44946823
 20
619.04678616
 11
516.23848865
 21
631.83580659
  0
LINE
  8
10
 62
     4
 10
451.76021040
 20
565.06650236
 11
454.09310081
 21
567.39939277
  0
LINE
  8
10
 62
     4
 10
477.18963005
 20
590.49592201
 11
483.65331238
 21
596.95960434
  0
LINE
  8
10
 62
     4
 10
502.36957811
 20
615.67587007
 11
516.75662820
 21
630.06292016
  0
LINE
  8
10
 62
     4
 10
454.05181579
 20
565.06708178
 11
455.21561709
 21
566.23088308
  0
LINE
  8
10
 62
     4
 10
477.71639652
 20
588.73166251
 11
484.15418323
 21
595.16944922
  0
LINE
  8
10
 62
     4
 10
501.28968798
 20
612.30495398
 11
517.27476774
 21
628.29003373
  0
LINE
  8
10
 62
     4
 10
478.24316298
 20
586.96740300
 11
484.65505407
 21
593.37929409
  0
LINE
  8
10
 62
     4
 10
500.20979786
 20
608.93403788
 11
510.48404792
 21
619.20828794
  0
LINE
  8
10
 62
     4
 10
511.80157912
 20
620.52581914
 11
517.79290729
 21
626.51714731
  0
LINE
  8
10
 62
     4
 10
478.76992945
 20
585.20314350
 11
485.15592491
 21
591.58913896
  0
LINE
  8
10
 62
     4
 10
499.12990774
 20
605.56312179
 11
509.48405668
 21
615.91727072
  0
LINE
  8
10
 62
     4
 10
512.23676121
 20
618.66997526
 11
518.31104683
 21
624.74426088
  0
LINE
  8
10
 62
     4
 10
479.29669592
 20
583.43888400
 11
485.65679576
 21
589.79898384
  0
LINE
  8
10
 62
     4
 10
498.05001761
 20
602.19220569
 11
508.49517460
 21
612.63736267
  0
LINE
  8
10
 62
     4
 10
512.68534046
 20
616.82752854
 11
518.82918638
 21
622.97137445
  0
LINE
  8
10
 62
     4
 10
479.82346239
 20
581.67462449
 11
486.15766660
 21
588.00882871
  0
LINE
  8
10
 62
     4
 10
496.97012749
 20
598.82128960
 11
507.40634273
 21
609.25750484
  0
LINE
  8
10
 62
     4
 10
513.15195160
 20
615.00311371
 11
519.34732592
 21
621.19848803
  0
LINE
  8
10
 62
     4
 10
480.35022886
 20
579.91036499
 11
486.65853745
 21
586.21867358
  0
LINE
  8
10
 62
     4
 10
495.89023737
 20
595.45037350
 11
506.31751087
 21
605.87764701
  0
LINE
  8
10
 62
     4
 10
513.63353321
 20
613.19366934
 11
519.86546547
 21
619.42560160
  0
LINE
  8
10
 62
     4
 10
480.87699532
 20
578.14610549
 11
487.15940829
 21
584.42851845
  0
LINE
  8
10
 62
     4
 10
494.81034724
 20
592.07945741
 11
505.22867901
 21
602.49778917
  0
LINE
  8
10
 62
     4
 10
514.12360760
 20
611.39271776
 11
520.38360501
 21
617.65271517
  0
LINE
  8
10
 62
     4
 10
481.40376179
 20
576.38184599
 11
487.66034041
 21
582.63842460
  0
LINE
  8
10
 62
     4
 10
493.73045712
 20
588.70854131
 11
504.13984715
 21
599.11793134
  0
LINE
  8
10
 62
     4
 10
514.63290323
 20
609.61098742
 11
520.90174455
 21
615.87982875
  0
LINE
  8
10
 62
     4
 10
481.93052826
 20
574.61758648
 11
488.16348120
 21
580.85053943
  0
LINE
  8
10
 62
     4
 10
492.65056700
 20
585.33762522
 11
503.05101529
 21
595.73807351
  0
LINE
  8
10
 62
     4
 10
515.14292583
 20
607.82998405
 11
521.41988410
 21
614.10694232
  0
LINE
  8
10
 62
     4
 10
482.45729473
 20
572.85332698
 11
488.66478473
 21
579.06081698
  0
LINE
  8
10
 62
     4
 10
491.58491458
 20
581.98094683
 11
501.96218342
 21
592.35821568
  0
LINE
  8
10
 62
     4
 10
515.65294843
 20
606.04898069
 11
521.93802364
 21
612.33405590
  0
LINE
  8
10
 62
     4
 10
482.98406120
 20
571.08906748
 11
489.15211014
 21
577.25711642
  0
LINE
  8
10
 62
     4
 10
490.63560932
 20
578.74061560
 11
500.87335156
 21
588.97835784
  0
LINE
  8
10
 62
     4
 10
516.16297104
 20
604.26797732
 11
522.45616319
 21
610.56116947
  0
LINE
  8
10
 62
     4
 10
483.51082766
 20
569.32480797
 11
499.78451970
 21
585.59850001
  0
LINE
  8
10
 62
     4
 10
516.67299364
 20
602.48697395
 11
522.97430273
 21
608.78828304
  0
LINE
  8
10
 62
     4
 10
484.03759413
 20
567.56054847
 11
498.69568784
 21
582.21864218
  0
LINE
  8
10
 62
     4
 10
517.18301624
 20
600.70597058
 11
523.49244228
 21
607.01539662
  0
LINE
  8
10
 62
     4
 10
484.56436060
 20
565.79628897
 11
497.60685598
 21
578.83878434
  0
LINE
  8
10
 62
     4
 10
517.69303884
 20
598.92496721
 11
524.01058182
 21
605.24251019
  0
LINE
  8
10
 62
     4
 10
548.64095857
 20
629.87288694
 11
551.32578716
 21
632.55771553
  0
LINE
  8
10
 62
     4
 10
486.12507191
 20
565.06597431
 11
496.51802412
 21
575.45892651
  0
LINE
  8
10
 62
     4
 10
518.20306145
 20
597.14396384
 11
524.52872137
 21
603.46962376
  0
LINE
  8
10
 62
     4
 10
547.67672589
 20
626.61762828
 11
553.61681313
 21
632.55771553
  0
LINE
  8
10
 62
     4
 10
488.41609788
 20
565.06597431
 11
495.42919225
 21
572.07906868
  0
LINE
  8
10
 62
     4
 10
518.71308405
 20
595.36296048
 11
525.04686091
 21
601.69673734
  0
LINE
  8
10
 62
     4
 10
546.71249321
 20
623.36236963
 11
555.90783910
 21
632.55771553
  0
LINE
  8
10
 62
     4
 10
490.70712385
 20
565.06597431
 11
494.34036039
 21
568.69921085
  0
LINE
  8
10
 62
     4
 10
519.22310665
 20
593.58195711
 11
525.56500046
 21
599.92385091
  0
LINE
  8
10
 62
     4
 10
545.74826052
 20
620.10711098
 11
556.27908687
 21
630.63793733
  0
LINE
  8
10
 62
     4
 10
492.99814982
 20
565.06597431
 11
493.25152853
 21
565.31935301
  0
LINE
  8
10
 62
     4
 10
519.73312926
 20
591.80095374
 11
526.08314000
 21
598.15096448
  0
LINE
  8
10
 62
     4
 10
544.78402784
 20
616.85185232
 11
555.24678458
 21
627.31460906
  0
LINE
  8
10
 62
     4
 10
520.24315186
 20
590.01995037
 11
526.60127955
 21
596.37807806
  0
LINE
  8
10
 62
     4
 10
543.81979516
 20
613.59659367
 11
554.21448229
 21
623.99128080
  0
LINE
  8
10
 62
     4
 10
520.75317446
 20
588.23894700
 11
527.11941909
 21
594.60519163
  0
LINE
  8
10
 62
     4
 10
542.85556247
 20
610.34133501
 11
553.18218000
 21
620.66795254
  0
LINE
  8
10
 62
     4
 10
521.26319706
 20
586.45794363
 11
527.63755863
 21
592.83230520
  0
LINE
  8
10
 62
     4
 10
541.89132979
 20
607.08607636
 11
552.14987771
 21
617.34462428
  0
LINE
  8
10
 62
     4
 10
521.77321967
 20
584.67694026
 11
528.15569818
 21
591.05941878
  0
LINE
  8
10
 62
     4
 10
540.92709711
 20
603.83081770
 11
551.11757542
 21
614.02129601
  0
LINE
  8
10
 62
     4
 10
522.28324227
 20
582.89593690
 11
528.67383772
 21
589.28653235
  0
LINE
  8
10
 62
     4
 10
539.96286442
 20
600.57555905
 11
550.08527312
 21
610.69796775
  0
LINE
  8
10
 62
     4
 10
522.79326487
 20
581.11493353
 11
529.19197727
 21
587.51364592
  0
LINE
  8
10
 62
     4
 10
538.99863174
 20
597.32030040
 11
549.05297083
 21
607.37463949
  0
LINE
  8
10
 62
     4
 10
523.30328747
 20
579.33393016
 11
529.70721335
 21
585.73785604
  0
LINE
  8
10
 62
     4
 10
538.03439906
 20
594.06504174
 11
548.02066854
 21
604.05131123
  0
LINE
  8
10
 62
     4
 10
523.81331008
 20
577.55292679
 11
530.21058069
 21
583.95019740
  0
LINE
  8
10
 62
     4
 10
537.07016637
 20
590.80978309
 11
546.98836625
 21
600.72798296
  0
LINE
  8
10
 62
     4
 10
569.29161352
 20
623.03123024
 11
576.06227491
 21
629.80189162
  0
LINE
  8
10
 62
     4
 10
524.32333268
 20
575.77192342
 11
530.70526122
 21
582.15385196
  0
LINE
  8
10
 62
     4
 10
536.10593369
 20
587.55452443
 11
545.95606396
 21
597.40465470
  0
LINE
  8
10
 62
     4
 10
567.49837127
 20
618.94696201
 11
580.49743161
 21
631.94602235
  0
LINE
  8
10
 62
     4
 10
524.83335528
 20
573.99092005
 11
531.19302219
 21
580.35058697
  0
LINE
  8
10
 62
     4
 10
535.14170101
 20
584.29926578
 11
544.92376167
 21
594.08132644
  0
LINE
  8
10
 62
     4
 10
566.80392280
 20
615.96148758
 11
583.82367240
 21
632.98123717
  0
LINE
  8
10
 62
     4
 10
525.34337788
 20
572.20991669
 11
531.68053808
 21
578.54707688
  0
LINE
  8
10
 62
     4
 10
534.19952980
 20
581.06606860
 11
543.89145937
 21
590.75799818
  0
LINE
  8
10
 62
     4
 10
566.51949446
 20
613.38603326
 11
586.70490334
 21
633.57144214
  0
LINE
  8
10
 62
     4
 10
525.85340049
 20
570.42891332
 11
532.17455552
 21
576.75006835
  0
LINE
  8
10
 62
     4
 10
533.29849683
 20
577.87400966
 11
542.85915708
 21
587.43466991
  0
LINE
  8
10
 62
     4
 10
526.36342309
 20
568.64790995
 11
541.82685479
 21
584.11134165
  0
LINE
  8
10
 62
     4
 10
526.87344569
 20
566.86690658
 11
540.79455250
 21
580.78801339
  0
LINE
  8
10
 62
     4
 10
527.38351831
 20
565.08595323
 11
539.76225021
 21
577.46468513
  0
LINE
  8
10
 62
     4
 10
529.65456536
 20
565.06597431
 11
538.72994792
 21
574.14135686
  0
LINE
  8
10
 62
     4
 10
531.94559133
 20
565.06597431
 11
537.69764563
 21
570.81802860
  0
LINE
  8
10
 62
     4
 10
534.23661730
 20
565.06597431
 11
536.66534333
 21
567.49470034
  0
LINE
  8
10
 62
     4
 10
566.47618399
 20
611.05169682
 11
589.32930773
 21
633.90482056
  0
LINE
  8
10
 62
     4
 10
568.76720996
 20
611.05169682
 11
575.47030051
 21
617.75478737
  0
LINE
  8
10
 62
     4
 10
584.12029428
 20
626.40478114
 11
591.75149907
 21
634.03598593
  0
LINE
  8
10
 62
     4
 10
571.05823593
 20
611.05169682
 11
574.84800786
 21
614.84146875
  0
LINE
  8
10
 62
     4
 10
587.09652802
 20
627.08998891
 11
594.01685920
 21
634.01032009
  0
LINE
  8
10
 62
     4
 10
573.34926190
 20
611.05169682
 11
574.62984114
 21
612.33227606
  0
LINE
  8
10
 62
     4
 10
589.65684961
 20
627.35928453
 11
596.15045888
 21
633.85289380
  0
LINE
  8
10
 62
     4
 10
591.99989595
 20
627.41130489
 11
598.16841477
 21
633.57982372
  0
LINE
  8
10
 62
     4
 10
594.16524508
 20
627.28562805
 11
600.07864305
 21
633.19902602
  0
LINE
  8
10
 62
     4
 10
596.16049918
 20
626.98985618
 11
601.88190960
 21
632.71126661
  0
LINE
  8
10
 62
     4
 10
597.97624388
 20
626.51457491
 11
603.57573782
 21
632.11406886
  0
LINE
  8
10
 62
     4
 10
568.78922138
 20
595.03652644
 11
571.34769204
 21
597.59499710
  0
LINE
  8
10
 62
     4
 10
599.60393521
 20
625.85124027
 11
605.15459516
 21
631.40190022
  0
LINE
  8
10
 62
     4
 10
565.84064617
 20
589.79692526
 11
576.86700705
 21
600.82328614
  0
LINE
  8
10
 62
     4
 10
601.03654246
 20
624.99282155
 11
606.60968643
 21
630.56596552
  0
LINE
  8
10
 62
     4
 10
565.02055761
 20
586.68581073
 11
580.31526769
 21
601.98052081
  0
LINE
  8
10
 62
     4
 10
602.26906388
 20
623.93431700
 11
607.92836161
 21
629.59361473
  0
LINE
  8
10
 62
     4
 10
564.74057652
 20
584.11480366
 11
583.33381532
 21
602.70804246
  0
LINE
  8
10
 62
     4
 10
603.29916470
 20
622.67339185
 11
609.09672828
 21
628.47095543
  0
LINE
  8
10
 62
     4
 10
564.74917487
 20
581.83237605
 11
586.15375219
 21
603.23695336
  0
LINE
  8
10
 62
     4
 10
604.12469516
 20
621.20789634
 11
610.13119458
 21
627.21439576
  0
LINE
  8
10
 62
     4
 10
564.96721230
 20
579.75938750
 11
574.69384478
 21
589.48601999
  0
LINE
  8
10
 62
     4
 10
580.06065922
 20
594.85283443
 11
588.86487534
 21
603.65705054
  0
LINE
  8
10
 62
     4
 10
604.74147903
 20
619.53365423
 11
611.02069708
 21
625.81287229
  0
LINE
  8
10
 62
     4
 10
565.34504763
 20
577.84619686
 11
573.57991691
 21
586.08106615
  0
LINE
  8
10
 62
     4
 10
584.10164219
 20
596.60279143
 11
591.52334181
 21
604.02449104
  0
LINE
  8
10
 62
     4
 10
605.16436196
 20
617.66551120
 11
611.76043971
 21
624.26158894
  0
LINE
  8
10
 62
     4
 10
565.85606074
 20
576.06618400
 11
573.36738083
 21
583.57750409
  0
LINE
  8
10
 62
     4
 10
587.23880677
 20
597.44893003
 11
594.13274456
 21
604.34286783
  0
LINE
  8
10
 62
     4
 10
605.41215361
 20
615.62227687
 11
612.34976841
 21
622.55989167
  0
LINE
  8
10
 62
     4
 10
566.48862942
 20
574.40772672
 11
573.51608039
 21
581.43517768
  0
LINE
  8
10
 62
     4
 10
590.08036954
 20
597.99946684
 11
596.71797922
 21
604.63707651
  0
LINE
  8
10
 62
     4
 10
605.52525889
 20
613.44435619
 11
612.79077205
 21
620.70986935
  0
LINE
  8
10
 62
     4
 10
567.23429192
 20
572.86236324
 11
573.91691965
 21
579.54499098
  0
LINE
  8
10
 62
     4
 10
592.78315598
 20
598.41122730
 11
599.30321388
 21
604.93128520
  0
LINE
  8
10
 62
     4
 10
605.56033066
 20
611.18840199
 11
613.09214305
 21
618.72021437
  0
LINE
  8
10
 62
     4
 10
568.09395591
 20
571.43100126
 11
574.52482974
 21
577.86187509
  0
LINE
  8
10
 62
     4
 10
595.46170338
 20
598.79874873
 11
601.88844853
 21
605.22549389
  0
LINE
  8
10
 62
     4
 10
605.56033066
 20
608.89737602
 11
613.27228166
 21
616.60932701
  0
LINE
  8
10
 62
     4
 10
569.07253074
 20
570.11855012
 11
575.31450808
 21
576.36052746
  0
LINE
  8
10
 62
     4
 10
598.10476488
 20
599.15078426
 11
604.47368319
 21
605.51970257
  0
LINE
  8
10
 62
     4
 10
605.56033066
 20
606.60635004
 11
613.36540732
 21
614.41142670
  0
LINE
  8
10
 62
     4
 10
570.16437458
 20
568.91936799
 11
576.27460899
 21
575.02960240
  0
LINE
  8
10
 62
     4
 10
600.71160116
 20
599.46659457
 11
613.40529331
 21
612.16028672
  0
LINE
  8
10
 62
     4
 10
571.35113145
 20
567.81509889
 11
577.38724016
 21
573.85120760
  0
LINE
  8
10
 62
     4
 10
603.28055972
 20
599.74452716
 11
613.40529331
 21
609.86926074
  0
LINE
  8
10
 62
     4
 10
572.66520620
 20
566.83814767
 11
578.65946999
 21
572.83241146
  0
LINE
  8
10
 62
     4
 10
605.56033066
 20
599.73327213
 11
613.40529331
 21
607.57823477
  0
LINE
  8
10
 62
     4
 10
574.10577315
 20
565.98768865
 11
580.08305883
 21
571.96497433
  0
LINE
  8
10
 62
     4
 10
605.56033066
 20
597.44224616
 11
613.40529331
 21
605.28720880
  0
LINE
  8
10
 62
     4
 10
575.68031296
 20
565.27120249
 11
581.67195088
 21
571.26284040
  0
LINE
  8
10
 62
     4
 10
605.56033066
 20
595.15122019
 11
613.40529331
 21
602.99618283
  0
LINE
  8
10
 62
     4
 10
577.39463304
 20
564.69449659
 11
583.44035126
 21
570.74021482
  0
LINE
  8
10
 62
     4
 10
605.56033066
 20
592.86019422
 11
613.40529331
 21
600.70515686
  0
LINE
  8
10
 62
     4
 10
579.25615197
 20
564.26498955
 11
585.41317522
 21
570.42201280
  0
LINE
  8
10
 62
     4
 10
605.56033066
 20
590.56916825
 11
613.40529331
 21
598.41413089
  0
LINE
  8
10
 62
     4
 10
581.26922106
 20
563.98703267
 11
587.63523000
 21
570.35304161
  0
LINE
  8
10
 62
     4
 10
605.56033066
 20
588.27814228
 11
613.38093012
 21
596.09874174
  0
LINE
  8
10
 62
     4
 10
583.43399781
 20
563.86078346
 11
590.22092189
 21
570.64770753
  0
LINE
  8
10
 62
     4
 10
605.48109899
 20
585.90788463
 11
613.32505812
 21
593.75184376
  0
LINE
  8
10
 62
     4
 10
585.73305346
 20
563.86881313
 11
593.15594680
 21
571.29170647
  0
LINE
  8
10
 62
     4
 10
605.20781052
 20
583.34357019
 11
613.26918612
 21
591.40494579
  0
LINE
  8
10
 62
     4
 10
588.17999281
 20
564.02472651
 11
596.83231806
 21
572.67705176
  0
LINE
  8
10
 62
     4
 10
604.37361548
 20
580.21834918
 11
613.21331412
 21
589.05804782
  0
LINE
  8
10
 62
     4
 10
590.86289782
 20
564.41660554
 11
613.15744211
 21
586.71114984
  0
LINE
  8
10
 62
     4
 10
593.82936023
 20
565.09204199
 11
613.10157011
 21
584.36425187
  0
LINE
  8
10
 62
     4
 10
597.53340158
 20
566.50505736
 11
613.04569811
 21
582.01735390
  0
LINE
  8
10
 62
     4
 10
605.53920147
 20
572.21983128
 11
613.00835494
 21
579.68898476
  0
LINE
  8
10
 62
     4
 10
605.48664170
 20
569.87624554
 11
613.05928328
 21
577.44888712
  0
LINE
  8
10
 62
     4
 10
605.72538126
 20
567.82395914
 11
613.11021161
 21
575.20878948
  0
LINE
  8
10
 62
     4
 10
606.50729825
 20
566.31485015
 11
613.17966832
 21
572.98722022
  0
LINE
  8
10
 62
     4
 10
607.92500472
 20
565.44153065
 11
613.36946551
 21
570.88599144
  0
LINE
  8
10
 62
     4
 10
609.87036531
 20
565.09586527
 11
613.85050816
 21
569.07600812
  0
LINE
  8
10
 62
     4
 10
612.13182768
 20
565.06630167
 11
614.80911560
 21
567.74358959
  0
LINE
  8
10
 62
     4
 10
614.42343307
 20
565.06688109
 11
616.24003727
 21
566.88348529
  0
POLYLINE
  8
10
 62
     4
 66
     1
  0
VERTEX
  8
10
 10
682.20900018
 20
640.22717463
  0
VERTEX
  8
10
 10
680.70863900
 20
639.50751675
  0
VERTEX
  8
10
 10
679.26611840
 20
638.76149237
  0
VERTEX
  8
10
 10
677.88997017
 20
637.99025275
  0
VERTEX
  8
10
 10
676.58872612
 20
637.19494916
  0
VERTEX
  8
10
 10
675.37091796
 20
636.37673289
  0
VERTEX
  8
10
 10
674.24507755
 20
635.53675520
  0
VERTEX
  8
10
 10
673.21973657
 20
634.67616739
  0
VERTEX
  8
10
 10
672.30342687
 20
633.79612069
  0
VERTEX
  8
10
 10
671.50468020
 20
632.89776639
  0
VERTEX
  8
10
 10
670.83202833
 20
631.98225579
  0
VERTEX
  8
10
 10
670.29400303
 20
631.05074016
  0
VERTEX
  8
10
 10
669.89913612
 20
630.10437075
  0
VERTEX
  8
10
 10
669.65595933
 20
629.14429884
  0
VERTEX
  8
10
 10
669.57300445
 20
628.17167571
  0
VERTEX
  8
10
 10
669.59722078
 20
627.14027021
  0
VERTEX
  8
10
 10
669.66910246
 20
626.00886206
  0
VERTEX
  8
10
 10
669.78749850
 20
624.78598322
  0
VERTEX
  8
10
 10
669.95125783
 20
623.48016562
  0
VERTEX
  8
10
 10
670.15922944
 20
622.09994118
  0
VERTEX
  8
10
 10
670.41026232
 20
620.65384191
  0
VERTEX
  8
10
 10
670.70320545
 20
619.15039971
  0
VERTEX
  8
10
 10
671.03690783
 20
617.59814654
  0
VERTEX
  8
10
 10
671.41021844
 20
616.00561436
  0
VERTEX
  8
10
 10
671.82198626
 20
614.38133511
  0
VERTEX
  8
10
 10
672.27106025
 20
612.73384073
  0
VERTEX
  8
10
 10
672.75628941
 20
611.07166317
  0
VERTEX
  8
10
 10
673.27652273
 20
609.40333438
  0
VERTEX
  8
10
 10
673.83060917
 20
607.73738630
  0
VERTEX
  8
10
 10
674.41739775
 20
606.08235090
  0
VERTEX
  8
10
 10
675.03573740
 20
604.44676008
  0
VERTEX
  8
10
 10
675.68447716
 20
602.83914583
  0
VERTEX
  8
10
 10
676.36246597
 20
601.26804011
  0
VERTEX
  8
10
 10
677.06855280
 20
599.74197480
  0
VERTEX
  8
10
 10
677.80158670
 20
598.26948193
  0
VERTEX
  8
10
 10
678.56041660
 20
596.85909339
  0
VERTEX
  8
10
 10
679.34389147
 20
595.51934114
  0
VERTEX
  8
10
 10
680.15086033
 20
594.25875712
  0
VERTEX
  8
10
 10
680.98017216
 20
593.08587331
  0
VERTEX
  8
10
 10
681.83067591
 20
592.00922162
  0
VERTEX
  8
10
 10
682.70122062
 20
591.03733401
  0
VERTEX
  8
10
 10
683.59065520
 20
590.17874246
  0
VERTEX
  8
10
 10
684.49782869
 20
589.44197884
  0
VERTEX
  8
10
 10
685.42159003
 20
588.83557517
  0
VERTEX
  8
10
 10
686.36078824
 20
588.36806337
  0
VERTEX
  8
10
 10
687.31427228
 20
588.04797540
  0
VERTEX
  8
10
 10
688.28089115
 20
587.88384318
  0
VERTEX
  8
10
 10
689.27139108
 20
587.86900479
  0
VERTEX
  8
10
 10
690.35377945
 20
587.91719749
  0
VERTEX
  8
10
 10
691.53190980
 20
588.01247951
  0
VERTEX
  8
10
 10
692.79725001
 20
588.15369950
  0
VERTEX
  8
10
 10
694.14126795
 20
588.33970609
  0
VERTEX
  8
10
 10
695.55543157
 20
588.56934792
  0
VERTEX
  8
10
 10
697.03120866
 20
588.84147365
  0
VERTEX
  8
10
 10
697.18515126
 20
588.87303614
  0
VERTEX
  8
10
 10
699.31791257
 20
589.32764674
  0
VERTEX
  8
10
 10
701.45067387
 20
589.82994287
  0
VERTEX
  8
10
 10
701.74289985
 20
589.90124047
  0
VERTEX
  8
10
 10
703.37980979
 20
590.33178813
  0
VERTEX
  8
10
 10
705.03567268
 20
590.79906285
  0
VERTEX
  8
10
 10
706.70195637
 20
591.30191329
  0
VERTEX
  8
10
 10
708.37012873
 20
591.83918811
  0
VERTEX
  8
10
 10
710.03165765
 20
592.40973591
  0
VERTEX
  8
10
 10
711.67801103
 20
593.01240534
  0
VERTEX
  8
10
 10
713.30065673
 20
593.64604509
  0
VERTEX
  8
10
 10
714.89106263
 20
594.30950373
  0
VERTEX
  8
10
 10
716.44069666
 20
595.00162996
  0
VERTEX
  8
10
 10
717.94102661
 20
595.72127237
  0
VERTEX
  8
10
 10
719.38352043
 20
596.46727963
  0
VERTEX
  8
10
 10
720.75964599
 20
597.23850036
  0
VERTEX
  8
10
 10
722.06087116
 20
598.03378323
  0
VERTEX
  8
10
 10
723.27866385
 20
598.85197686
  0
VERTEX
  8
10
 10
724.40449190
 20
599.69192990
  0
VERTEX
  8
10
 10
725.42982321
 20
600.55249095
  0
VERTEX
  8
10
 10
726.34612569
 20
601.43250870
  0
VERTEX
  8
10
 10
727.14486715
 20
602.33083178
  0
VERTEX
  8
10
 10
727.81751555
 20
603.24630882
  0
VERTEX
  8
10
 10
728.35553871
 20
604.17778845
  0
VERTEX
  8
10
 10
728.75040454
 20
605.12411933
  0
VERTEX
  8
10
 10
728.99358093
 20
606.08415009
  0
VERTEX
  8
10
 10
729.07653576
 20
607.05672937
  0
VERTEX
  8
10
 10
729.05231948
 20
608.08817872
  0
VERTEX
  8
10
 10
728.98043820
 20
609.21962802
  0
VERTEX
  8
10
 10
728.86204328
 20
610.44254539
  0
VERTEX
  8
10
 10
728.69828605
 20
611.74839899
  0
VERTEX
  8
10
 10
728.49031791
 20
613.12865699
  0
VERTEX
  8
10
 10
728.23929023
 20
614.57478748
  0
VERTEX
  8
10
 10
727.94635432
 20
616.07825863
  0
VERTEX
  8
10
 10
727.61266158
 20
617.63053853
  0
VERTEX
  8
10
 10
727.23936337
 20
619.22309539
  0
VERTEX
  8
10
 10
726.82761103
 20
620.84739728
  0
VERTEX
  8
10
 10
726.37855594
 20
622.49491239
  0
VERTEX
  8
10
 10
725.89334942
 20
624.15710883
  0
VERTEX
  8
10
 10
725.37314289
 20
625.82545474
  0
VERTEX
  8
10
 10
724.81908764
 20
627.49141829
  0
VERTEX
  8
10
 10
724.23233509
 20
629.14646757
  0
VERTEX
  8
10
 10
723.61403659
 20
630.78207076
  0
VERTEX
  8
10
 10
722.96534347
 20
632.38969595
  0
VERTEX
  8
10
 10
722.28740713
 20
633.96081132
  0
VERTEX
  8
10
 10
721.58137890
 20
635.48688501
  0
VERTEX
  8
10
 10
720.84841012
 20
636.95938514
  0
VERTEX
  8
10
 10
720.08965222
 20
638.36977985
  0
VERTEX
  8
10
 10
719.30625649
 20
639.70953728
  0
VERTEX
  8
10
 10
718.49937434
 20
640.97012558
  0
VERTEX
  8
10
 10
717.67015708
 20
642.14301286
  0
VERTEX
  8
10
 10
716.81975611
 20
643.21966729
  0
SEQEND
  8
10
  0
POLYLINE
  8
10
 62
     4
 66
     1
  0
VERTEX
  8
10
 10
716.48375814
 20
643.59482866
  0
VERTEX
  8
10
 10
715.94932278
 20
644.19155700
  0
VERTEX
  8
10
 10
715.06000847
 20
645.05015011
  0
VERTEX
  8
10
 10
714.15296448
 20
645.78691478
  0
VERTEX
  8
10
 10
713.22934222
 20
646.39331914
  0
VERTEX
  8
10
 10
712.29029305
 20
646.86083133
  0
VERTEX
  8
10
 10
711.33696831
 20
647.18091948
  0
VERTEX
  8
10
 10
710.37051935
 20
647.34505175
  0
VERTEX
  8
10
 10
709.38001942
 20
647.35989014
  0
VERTEX
  8
10
 10
708.29746114
 20
647.31169739
  0
VERTEX
  8
10
 10
707.11917149
 20
647.21641519
  0
VERTEX
  8
10
 10
705.85368227
 20
647.07519480
  0
VERTEX
  8
10
 10
704.50952521
 20
646.88918753
  0
VERTEX
  8
10
 10
703.09523210
 20
646.65954462
  0
VERTEX
  8
10
 10
701.61933474
 20
646.38741736
  0
VERTEX
  8
10
 10
701.45067387
 20
646.35283951
  0
VERTEX
  8
10
 10
700.39512533
 20
646.13224659
  0
VERTEX
  8
10
 10
699.86735104
 20
646.02328108
  0
VERTEX
  8
10
 10
698.80097039
 20
645.78392640
  0
VERTEX
  8
10
 10
698.26236403
 20
645.65353723
  0
VERTEX
  8
10
 10
697.18515126
 20
645.39542077
  0
VERTEX
  8
10
 10
696.90733482
 20
645.32764221
  0
VERTEX
  8
10
 10
695.27033817
 20
644.89709028
  0
VERTEX
  8
10
 10
693.61439612
 20
644.42981038
  0
VERTEX
  8
10
 10
691.94804045
 20
643.92695378
  0
VERTEX
  8
10
 10
690.27980297
 20
643.38967174
  0
VERTEX
  8
10
 10
688.61821542
 20
642.81911552
  0
VERTEX
  8
10
 10
686.97180959
 20
642.21643644
  0
VERTEX
  8
10
 10
685.34911726
 20
641.58278575
  0
VERTEX
  8
10
 10
683.75867021
 20
640.91931473
  0
VERTEX
  8
10
 10
682.20900018
 20
640.22717463
  0
SEQEND
  8
10
  0
POLYLINE
  8
10
 62
     4
 66
     1
  0
VERTEX
  8
10
 10
681.91312400
 20
577.00245487
  0
VERTEX
  8
10
 10
683.69187292
 20
576.16501721
  0
VERTEX
  8
10
 10
685.50609037
 20
575.45221435
  0
VERTEX
  8
10
 10
687.35347400
 20
574.87003819
  0
VERTEX
  8
10
 10
689.23172138
 20
574.42448063
  0
VERTEX
  8
10
 10
691.13853016
 20
574.12153361
  0
VERTEX
  8
10
 10
693.07159796
 20
573.96718897
  0
VERTEX
  8
10
 10
695.03034024
 20
573.95977114
  0
VERTEX
  8
10
 10
697.02137777
 20
574.05615674
  0
VERTEX
  8
10
 10
697.18515126
 20
574.07161300
  0
VERTEX
  8
10
 10
698.25153191
 20
574.13713930
  0
VERTEX
  8
10
 10
699.31791257
 20
574.26819190
  0
VERTEX
  8
10
 10
700.38429322
 20
574.39924450
  0
VERTEX
  8
10
 10
701.45067387
 20
574.59582340
  0
VERTEX
  8
10
 10
703.13956370
 20
574.90117898
  0
VERTEX
  8
10
 10
705.20734097
 20
575.36046693
  0
VERTEX
  8
10
 10
707.27932128
 20
575.90472453
  0
VERTEX
  8
10
 10
709.34951189
 20
576.53164940
  0
VERTEX
  8
10
 10
711.41192003
 20
577.23893917
  0
VERTEX
  8
10
 10
713.46055291
 20
578.02429147
  0
VERTEX
  8
10
 10
715.48941786
 20
578.88540388
  0
VERTEX
  8
10
 10
717.49252204
 20
579.81997406
  0
VERTEX
  8
10
 10
719.46387273
 20
580.82569963
  0
VERTEX
  8
10
 10
721.39747718
 20
581.90027819
  0
VERTEX
  8
10
 10
723.28734263
 20
583.04140738
  0
VERTEX
  8
10
 10
725.12747628
 20
584.24678481
  0
VERTEX
  8
10
 10
726.91188544
 20
585.51410812
  0
VERTEX
  8
10
 10
728.63457732
 20
586.84107495
  0
VERTEX
  8
10
 10
730.28955914
 20
588.22538286
  0
VERTEX
  8
10
 10
731.87083820
 20
589.66472952
  0
VERTEX
  8
10
 10
733.37242170
 20
591.15681255
  0
VERTEX
  8
10
 10
734.78831689
 20
592.69932955
  0
VERTEX
  8
10
 10
736.11253104
 20
594.28997816
  0
VERTEX
  8
10
 10
737.33907135
 20
595.92645601
  0
VERTEX
  8
10
 10
738.46194509
 20
597.60646073
  0
VERTEX
  8
10
 10
739.47515951
 20
599.32768990
  0
VERTEX
  8
10
 10
740.37272181
 20
601.08784117
  0
VERTEX
  8
10
 10
741.14863928
 20
602.88461215
  0
VERTEX
  8
10
 10
741.79691915
 20
604.71570048
  0
VERTEX
  8
10
 10
742.31156867
 20
606.57880378
  0
VERTEX
  8
10
 10
742.68659507
 20
608.47161966
  0
VERTEX
  8
10
 10
742.91600560
 20
610.39184576
  0
VERTEX
  8
10
 10
742.99380751
 20
612.33717966
  0
VERTEX
  8
10
 10
742.94537489
 20
614.31179381
  0
VERTEX
  8
10
 10
742.80161190
 20
616.31758120
  0
VERTEX
  8
10
 10
742.56482094
 20
618.34854908
  0
VERTEX
  8
10
 10
742.23730442
 20
620.39870465
  0
VERTEX
  8
10
 10
741.82136466
 20
622.46205521
  0
VERTEX
  8
10
 10
741.31930409
 20
624.53260796
  0
VERTEX
  8
10
 10
740.73342506
 20
626.60437017
  0
VERTEX
  8
10
 10
740.06602994
 20
628.67134907
  0
VERTEX
  8
10
 10
739.31942109
 20
630.72755189
  0
VERTEX
  8
10
 10
738.49590096
 20
632.76698589
  0
VERTEX
  8
10
 10
737.59777185
 20
634.78365833
  0
VERTEX
  8
10
 10
736.62733620
 20
636.77157645
  0
VERTEX
  8
10
 10
735.58689632
 20
638.72474745
  0
VERTEX
  8
10
 10
734.47875466
 20
640.63717862
  0
VERTEX
  8
10
 10
733.30521353
 20
642.50287718
  0
VERTEX
  8
10
 10
732.06857537
 20
644.31585041
  0
VERTEX
  8
10
 10
730.77114250
 20
646.07010547
  0
VERTEX
  8
10
 10
729.41521735
 20
647.75964969
  0
VERTEX
  8
10
 10
728.00310227
 20
649.37849028
  0
VERTEX
  8
10
 10
726.53709962
 20
650.92063447
  0
VERTEX
  8
10
 10
725.01951181
 20
652.38008952
  0
VERTEX
  8
10
 10
723.45264121
 20
653.75086267
  0
VERTEX
  8
10
 10
721.83879017
 20
655.02696116
  0
VERTEX
  8
10
 10
720.18026111
 20
656.20239226
  0
VERTEX
  8
10
 10
718.47935638
 20
657.27116317
  0
VERTEX
  8
10
 10
716.73837835
 20
658.22728114
  0
VERTEX
  8
10
 10
714.95962943
 20
659.06475343
  0
VERTEX
  8
10
 10
713.14541198
 20
659.77758730
  0
VERTEX
  8
10
 10
711.29802835
 20
660.35978996
  0
VERTEX
  8
10
 10
709.41978097
 20
660.80536867
  0
VERTEX
  8
10
 10
707.51297219
 20
661.10833065
  0
VERTEX
  8
10
 10
705.57990439
 20
661.26268317
  0
VERTEX
  8
10
 10
703.62116211
 20
661.27010239
  0
VERTEX
  8
10
 10
701.63012458
 20
661.17371946
  0
VERTEX
  8
10
 10
700.51888125
 20
661.06464155
  0
VERTEX
  8
10
 10
699.41088858
 20
660.94115155
  0
VERTEX
  8
10
 10
698.29639459
 20
660.79339828
  0
VERTEX
  8
10
 10
697.18515126
 20
660.63123292
  0
VERTEX
  8
10
 10
695.51193865
 20
660.32871978
  0
VERTEX
  8
10
 10
693.44416139
 20
659.86944356
  0
VERTEX
  8
10
 10
691.37218107
 20
659.32519956
  0
VERTEX
  8
10
 10
689.30199046
 20
658.69828996
  0
VERTEX
  8
10
 10
687.23958233
 20
657.99101697
  0
VERTEX
  8
10
 10
685.19094944
 20
657.20568279
  0
VERTEX
  8
10
 10
683.16208449
 20
656.34458962
  0
VERTEX
  8
10
 10
681.15898031
 20
655.41003970
  0
VERTEX
  8
10
 10
679.18762962
 20
654.40433519
  0
VERTEX
  8
10
 10
677.25402517
 20
653.32977830
  0
VERTEX
  8
10
 10
675.36415973
 20
652.18867129
  0
VERTEX
  8
10
 10
673.52402607
 20
650.98331630
  0
VERTEX
  8
10
 10
671.73961691
 20
649.71601560
  0
VERTEX
  8
10
 10
670.01692503
 20
648.38907134
  0
VERTEX
  8
10
 10
668.36194321
 20
647.00478576
  0
VERTEX
  8
10
 10
666.78066416
 20
645.56546105
  0
VERTEX
  8
10
 10
665.27908065
 20
644.07339941
  0
VERTEX
  8
10
 10
663.86318546
 20
642.53090308
  0
VERTEX
  8
10
 10
662.53897131
 20
640.94027423
  0
VERTEX
  8
10
 10
661.31243100
 20
639.30381510
  0
VERTEX
  8
10
 10
660.18955726
 20
637.62382784
  0
VERTEX
  8
10
 10
659.17634285
 20
635.90261473
  0
VERTEX
  8
10
 10
658.27878054
 20
634.14247791
  0
VERTEX
  8
10
 10
657.50286307
 20
632.34571964
  0
VERTEX
  8
10
 10
656.85458320
 20
630.51464208
  0
VERTEX
  8
10
 10
656.33993368
 20
628.65154749
  0
VERTEX
  8
10
 10
655.96490728
 20
626.75873801
  0
VERTEX
  8
10
 10
655.73549675
 20
624.83851589
  0
VERTEX
  8
10
 10
655.65769484
 20
622.89318333
  0
VERTEX
  8
10
 10
655.70612746
 20
620.91839790
  0
VERTEX
  8
10
 10
655.84989045
 20
618.91245788
  0
VERTEX
  8
10
 10
656.08668141
 20
616.88135513
  0
VERTEX
  8
10
 10
656.41419793
 20
614.83108158
  0
VERTEX
  8
10
 10
656.83013769
 20
612.76762910
  0
VERTEX
  8
10
 10
657.33219826
 20
610.69698964
  0
VERTEX
  8
10
 10
657.91807729
 20
608.62515504
  0
VERTEX
  8
10
 10
658.58547242
 20
606.55811725
  0
VERTEX
  8
10
 10
659.33208126
 20
604.50186816
  0
VERTEX
  8
10
 10
660.15560139
 20
602.46239966
  0
VERTEX
  8
10
 10
661.05373050
 20
600.44570362
  0
VERTEX
  8
10
 10
662.02416615
 20
598.45777199
  0
VERTEX
  8
10
 10
663.06460603
 20
596.50459667
  0
VERTEX
  8
10
 10
664.17274769
 20
594.59216954
  0
VERTEX
  8
10
 10
665.34628882
 20
592.72648250
  0
VERTEX
  8
10
 10
666.58292698
 20
590.91352744
  0
VERTEX
  8
10
 10
667.88035985
 20
589.15929629
  0
VERTEX
  8
10
 10
669.23628500
 20
587.46978094
  0
VERTEX
  8
10
 10
670.64840008
 20
585.85097330
  0
VERTEX
  8
10
 10
672.11440273
 20
584.30886523
  0
VERTEX
  8
10
 10
673.63199054
 20
582.84944868
  0
VERTEX
  8
10
 10
675.19886114
 20
581.47871551
  0
VERTEX
  8
10
 10
676.81271218
 20
580.20265766
  0
VERTEX
  8
10
 10
678.47124124
 20
579.02726700
  0
VERTEX
  8
10
 10
680.17214597
 20
577.95853542
  0
VERTEX
  8
10
 10
681.91312400
 20
577.00245487
  0
SEQEND
  8
10
  0
POLYLINE
  8
10
 62
     4
 66
     1
  0
VERTEX
  8
10
 10
685.51656003
 20
603.76337742
  0
VERTEX
  8
10
 10
685.51656003
 20
631.36706072
  0
VERTEX
  8
10
 10
713.11926511
 20
631.36706072
  0
VERTEX
  8
10
 10
713.11926511
 20
603.76337742
  0
VERTEX
  8
10
 10
685.51656003
 20
603.76337742
  0
SEQEND
  8
10
  0
LINE
  8
10
 62
     4
 10
712.95389460
 20
603.76337742
 11
713.11926511
 21
603.92874793
  0
CIRCLE
  8
10
 62
     4
 10
699.32477011
 20
617.61469202
 40
57.87371627
  0
POLYLINE
  8
10
 62
     4
 66
     1
  0
VERTEX
  8
10
 10
676.43133566
 20
663.42164903
  0
VERTEX
  8
10
 10
674.18835880
 20
662.21788423
  0
VERTEX
  8
10
 10
671.99982814
 20
660.92246822
  0
VERTEX
  8
10
 10
669.87061076
 20
659.53836655
  0
VERTEX
  8
10
 10
667.80557382
 20
658.06854476
  0
VERTEX
  8
10
 10
665.80958437
 20
656.51596836
  0
VERTEX
  8
10
 10
663.88750951
 20
654.88360290
  0
VERTEX
  8
10
 10
662.04421635
 20
653.17441391
  0
VERTEX
  8
10
 10
660.28457198
 20
651.39136692
  0
VERTEX
  8
10
 10
658.61344346
 20
649.53742744
  0
VERTEX
  8
10
 10
657.03569794
 20
647.61556107
  0
VERTEX
  8
10
 10
655.55620248
 20
645.62873328
  0
VERTEX
  8
10
 10
654.17982420
 20
643.57990962
  0
VERTEX
  8
10
 10
652.91143015
 20
641.47205561
  0
VERTEX
  8
10
 10
651.75588747
 20
639.30813684
  0
VERTEX
  8
10
 10
650.71806326
 20
637.09111878
  0
VERTEX
  8
10
 10
649.80282456
 20
634.82396697
  0
VERTEX
  8
10
 10
649.01503851
 20
632.50964697
  0
VERTEX
  8
10
 10
648.35957220
 20
630.15112433
  0
VERTEX
  8
10
 10
647.84129273
 20
627.75136452
  0
VERTEX
  8
10
 10
647.46506716
 20
625.31333311
  0
VERTEX
  8
10
 10
647.23576262
 20
622.83999564
  0
VERTEX
  8
10
 10
647.15824622
 20
620.33431765
  0
VERTEX
  8
10
 10
647.22063077
 20
617.81342165
  0
VERTEX
  8
10
 10
647.40580732
 20
615.29588368
  0
VERTEX
  8
10
 10
647.71081013
 20
612.78656999
  0
VERTEX
  8
10
 10
648.13267355
 20
610.29034672
  0
VERTEX
  8
10
 10
648.66843180
 20
607.81208015
  0
VERTEX
  8
10
 10
649.31511920
 20
605.35663648
  0
VERTEX
  8
10
 10
650.06977003
 20
602.92888191
  0
VERTEX
  8
10
 10
650.92941861
 20
600.53368263
  0
VERTEX
  8
10
 10
651.89109920
 20
598.17590489
  0
VERTEX
  8
10
 10
652.95184611
 20
595.86041492
  0
VERTEX
  8
10
 10
654.10869359
 20
593.59207886
  0
VERTEX
  8
10
 10
655.35867600
 20
591.37576298
  0
VERTEX
  8
10
 10
656.69882755
 20
589.21633350
  0
VERTEX
  8
10
 10
658.12618260
 20
587.11865659
  0
VERTEX
  8
10
 10
659.63777539
 20
585.08759849
  0
VERTEX
  8
10
 10
661.23064026
 20
583.12802539
  0
VERTEX
  8
10
 10
662.90181147
 20
581.24480352
  0
VERTEX
  8
10
 10
664.64832332
 20
579.44279913
  0
VERTEX
  8
10
 10
666.46721006
 20
577.72687836
  0
VERTEX
  8
10
 10
668.35550605
 20
576.10190749
  0
VERTEX
  8
10
 10
670.31024552
 20
574.57275266
  0
VERTEX
  8
10
 10
672.32846281
 20
573.14428015
  0
VERTEX
  8
10
 10
674.40719216
 20
571.82135613
  0
VERTEX
  8
10
 10
676.54346789
 20
570.60884685
  0
VERTEX
  8
10
 10
678.73432429
 20
569.51161849
  0
VERTEX
  8
10
 10
680.97679565
 20
568.53453728
  0
VERTEX
  8
10
 10
683.26791627
 20
567.68246941
  0
VERTEX
  8
10
 10
685.60472039
 20
566.96028115
  0
VERTEX
  8
10
 10
687.98424238
 20
566.37283864
  0
VERTEX
  8
10
 10
690.40351646
 20
565.92500813
  0
VERTEX
  8
10
 10
692.85957696
 20
565.62165583
  0
VERTEX
  8
10
 10
695.34945815
 20
565.46764795
  0
VERTEX
  8
10
 10
697.11998851
 20
565.46495928
  0
VERTEX
  8
10
 10
698.21884612
 20
565.49411310
  0
VERTEX
  8
10
 10
699.31770372
 20
565.55242074
  0
VERTEX
  8
10
 10
700.41656132
 20
565.61072838
  0
VERTEX
  8
10
 10
701.51541893
 20
565.69818983
  0
VERTEX
  8
10
 10
702.90039622
 20
565.83340537
  0
VERTEX
  8
10
 10
705.40372740
 20
566.19717960
  0
VERTEX
  8
10
 10
707.89154911
 20
566.67632377
  0
VERTEX
  8
10
 10
710.35899429
 20
567.26787325
  0
VERTEX
  8
10
 10
712.80119579
 20
567.96886338
  0
VERTEX
  8
10
 10
715.21328660
 20
568.77632950
  0
VERTEX
  8
10
 10
717.59039954
 20
569.68730695
  0
VERTEX
  8
10
 10
719.92766756
 20
570.69883113
  0
VERTEX
  8
10
 10
722.22022355
 20
571.80793732
  0
VERTEX
  8
10
 10
724.46320044
 20
573.01166093
  0
VERTEX
  8
10
 10
726.65173110
 20
574.30703726
  0
VERTEX
  8
10
 10
728.78094845
 20
575.69110168
  0
VERTEX
  8
10
 10
730.84598542
 20
577.16088954
  0
VERTEX
  8
10
 10
732.84197486
 20
578.71343620
  0
VERTEX
  8
10
 10
734.76404973
 20
580.34577698
  0
VERTEX
  8
10
 10
736.60734289
 20
582.05494728
  0
VERTEX
  8
10
 10
738.36698726
 20
583.83798240
  0
VERTEX
  8
10
 10
740.03811575
 20
585.69191769
  0
VERTEX
  8
10
 10
741.61586130
 20
587.61378855
  0
VERTEX
  8
10
 10
743.09535676
 20
589.60063026
  0
VERTEX
  8
10
 10
744.47173504
 20
591.64947821
  0
VERTEX
  8
10
 10
745.74012908
 20
593.75736776
  0
VERTEX
  8
10
 10
746.89567177
 20
595.92133423
  0
VERTEX
  8
10
 10
747.93349598
 20
598.13841298
  0
VERTEX
  8
10
 10
748.84873468
 20
600.40563937
  0
VERTEX
  8
10
 10
749.63652073
 20
602.72004871
  0
VERTEX
  8
10
 10
750.29198703
 20
605.07867641
  0
VERTEX
  8
10
 10
750.81026650
 20
607.47855777
  0
VERTEX
  8
10
 10
751.18649208
 20
609.91672816
  0
VERTEX
  8
10
 10
751.41579662
 20
612.39022292
  0
VERTEX
  8
10
 10
751.49331302
 20
614.89607741
  0
VERTEX
  8
10
 10
751.43092847
 20
617.41675316
  0
VERTEX
  8
10
 10
751.24575192
 20
619.93409551
  0
VERTEX
  8
10
 10
750.94074911
 20
622.44323713
  0
VERTEX
  8
10
 10
750.51888569
 20
624.93931067
  0
VERTEX
  8
10
 10
749.98312744
 20
627.41744874
  0
VERTEX
  8
10
 10
749.33644004
 20
629.87278399
  0
VERTEX
  8
10
 10
748.58178920
 20
632.30044907
  0
VERTEX
  8
10
 10
747.72214062
 20
634.69557659
  0
VERTEX
  8
10
 10
746.76046004
 20
637.05329924
  0
VERTEX
  8
10
 10
745.69971313
 20
639.36874962
  0
VERTEX
  8
10
 10
744.54286565
 20
641.63706039
  0
VERTEX
  8
10
 10
743.29288324
 20
643.85336417
  0
VERTEX
  8
10
 10
741.95273169
 20
646.01279362
  0
VERTEX
  8
10
 10
740.52537664
 20
648.11048137
  0
VERTEX
  8
10
 10
739.01378381
 20
650.14156007
  0
VERTEX
  8
10
 10
737.42091898
 20
652.10116236
  0
VERTEX
  8
10
 10
735.74974777
 20
653.98442085
  0
VERTEX
  8
10
 10
734.00323592
 20
655.78646824
  0
VERTEX
  8
10
 10
732.18434917
 20
657.50243712
  0
VERTEX
  8
10
 10
730.29605319
 20
659.12746015
  0
VERTEX
  8
10
 10
728.34131372
 20
660.65666995
  0
VERTEX
  8
10
 10
726.32309643
 20
662.08519919
  0
VERTEX
  8
10
 10
724.24436708
 20
663.40818050
  0
VERTEX
  8
10
 10
722.10809134
 20
664.62074651
  0
VERTEX
  8
10
 10
719.91723494
 20
665.71802987
  0
VERTEX
  8
10
 10
717.67476359
 20
666.69516324
  0
VERTEX
  8
10
 10
715.38364297
 20
667.54727920
  0
VERTEX
  8
10
 10
713.04683882
 20
668.26951045
  0
VERTEX
  8
10
 10
710.66731686
 20
668.85698961
  0
VERTEX
  8
10
 10
708.24804277
 20
669.30484930
  0
VERTEX
  8
10
 10
705.79198228
 20
669.60822220
  0
VERTEX
  8
10
 10
703.30210108
 20
669.76224093
  0
VERTEX
  8
10
 10
701.51541893
 20
669.76495439
  0
VERTEX
  8
10
 10
700.41656132
 20
669.73559851
  0
VERTEX
  8
10
 10
699.31770372
 20
669.69156469
  0
VERTEX
  8
10
 10
696.98500457
 20
669.52199560
  0
VERTEX
  8
10
 10
695.75116302
 20
669.39646033
  0
VERTEX
  8
10
 10
693.24783183
 20
669.03266430
  0
VERTEX
  8
10
 10
690.76001013
 20
668.55349282
  0
VERTEX
  8
10
 10
688.29256494
 20
667.96191140
  0
VERTEX
  8
10
 10
685.85036341
 20
667.26088558
  0
VERTEX
  8
10
 10
683.43827263
 20
666.45338090
  0
VERTEX
  8
10
 10
681.06115969
 20
665.54236289
  0
VERTEX
  8
10
 10
678.72389168
 20
664.53079710
  0
VERTEX
  8
10
 10
676.43133566
 20
663.42164903
  0
SEQEND
  8
10
  0
POLYLINE
  8
10
 62
     4
 66
     1
  0
VERTEX
  8
10
 10
721.86651987
 20
613.34462339
  0
VERTEX
  8
10
 10
722.05885344
 20
611.94252791
  0
VERTEX
  8
10
 10
722.23078117
 20
610.60824821
  0
VERTEX
  8
10
 10
722.38170985
 20
609.35188461
  0
VERTEX
  8
10
 10
722.51104624
 20
608.18353742
  0
VERTEX
  8
10
 10
722.61819719
 20
607.11330693
  0
VERTEX
  8
10
 10
722.70256941
 20
606.15129347
  0
VERTEX
  8
10
 10
722.76356975
 20
605.30759737
  0
VERTEX
  8
10
 10
722.80060500
 20
604.59231896
  0
VERTEX
  8
10
 10
722.81308190
 20
604.01555852
  0
VERTEX
  8
10
 10
722.72494570
 20
603.51445876
  0
VERTEX
  8
10
 10
722.46727053
 20
603.01982436
  0
VERTEX
  8
10
 10
722.05015655
 20
602.53224853
  0
VERTEX
  8
10
 10
721.48370387
 20
602.05232446
  0
VERTEX
  8
10
 10
720.77801265
 20
601.58064537
  0
VERTEX
  8
10
 10
719.94318302
 20
601.11780450
  0
VERTEX
  8
10
 10
718.98931510
 20
600.66439502
  0
VERTEX
  8
10
 10
717.92650908
 20
600.22101014
  0
VERTEX
  8
10
 10
716.76486507
 20
599.78824312
  0
VERTEX
  8
10
 10
715.51448321
 20
599.36668715
  0
VERTEX
  8
10
 10
714.18546364
 20
598.95693543
  0
VERTEX
  8
10
 10
712.78790647
 20
598.55958116
  0
VERTEX
  8
10
 10
711.33191192
 20
598.17521759
  0
VERTEX
  8
10
 10
709.82758005
 20
597.80443792
  0
VERTEX
  8
10
 10
708.28501104
 20
597.44783536
  0
VERTEX
  8
10
 10
706.71430501
 20
597.10600312
  0
VERTEX
  8
10
 10
705.12556209
 20
596.77953440
  0
VERTEX
  8
10
 10
703.52888247
 20
596.46902245
  0
VERTEX
  8
10
 10
701.93436627
 20
596.17506043
  0
VERTEX
  8
10
 10
701.51541893
 20
596.10176460
  0
VERTEX
  8
10
 10
700.41656132
 20
595.90140584
  0
VERTEX
  8
10
 10
698.21884612
 20
595.53890970
  0
VERTEX
  8
10
 10
697.11998851
 20
595.37677232
  0
VERTEX
  8
10
 10
695.77993826
 20
595.17657623
  0
VERTEX
  8
10
 10
694.34774118
 20
594.97426218
  0
VERTEX
  8
10
 10
692.97830832
 20
594.79205741
  0
VERTEX
  8
10
 10
691.68173989
 20
594.63055506
  0
VERTEX
  8
10
 10
690.46813594
 20
594.49034836
  0
VERTEX
  8
10
 10
689.34759668
 20
594.37203052
  0
VERTEX
  8
10
 10
688.33022224
 20
594.27619478
  0
VERTEX
  8
10
 10
687.42611273
 20
594.20343435
  0
VERTEX
  8
10
 10
686.64536828
 20
594.15434240
  0
VERTEX
  8
10
 10
685.99808908
 20
594.12951221
  0
VERTEX
  8
10
 10
685.47633429
 20
594.14862579
  0
VERTEX
  8
10
 10
684.97839306
 20
594.32279953
  0
VERTEX
  8
10
 10
684.48721380
 20
594.66146736
  0
VERTEX
  8
10
 10
684.00338969
 20
595.15452884
  0
VERTEX
  8
10
 10
683.52751397
 20
595.79188339
  0
VERTEX
  8
10
 10
683.06017982
 20
596.56343058
  0
VERTEX
  8
10
 10
682.60198049
 20
597.45906991
  0
VERTEX
  8
10
 10
682.15350916
 20
598.46870086
  0
VERTEX
  8
10
 10
681.71535906
 20
599.58222297
  0
VERTEX
  8
10
 10
681.28812340
 20
600.78953574
  0
VERTEX
  8
10
 10
680.87239541
 20
602.08053867
  0
VERTEX
  8
10
 10
680.46876826
 20
603.44513125
  0
VERTEX
  8
10
 10
680.07783522
 20
604.87321301
  0
VERTEX
  8
10
 10
679.70018942
 20
606.35468348
  0
VERTEX
  8
10
 10
679.33642415
 20
607.87944212
  0
VERTEX
  8
10
 10
678.98713260
 20
609.43738845
  0
VERTEX
  8
10
 10
678.65290797
 20
611.01842201
  0
VERTEX
  8
10
 10
678.33434350
 20
612.61244226
  0
VERTEX
  8
10
 10
678.03203236
 20
614.20934875
  0
VERTEX
  8
10
 10
677.74656776
 20
615.79904096
  0
VERTEX
  8
10
 10
677.47854297
 20
617.37141840
  0
VERTEX
  8
10
 10
677.22855116
 20
618.91638057
  0
VERTEX
  8
10
 10
676.99718555
 20
620.42382701
  0
VERTEX
  8
10
 10
676.78503937
 20
621.88365720
  0
VERTEX
  8
10
 10
676.59270580
 20
623.28577067
  0
VERTEX
  8
10
 10
676.42077807
 20
624.62006689
  0
VERTEX
  8
10
 10
676.26984939
 20
625.87644541
  0
VERTEX
  8
10
 10
676.14051300
 20
627.04480570
  0
VERTEX
  8
10
 10
676.03336205
 20
628.11504729
  0
VERTEX
  8
10
 10
675.94898980
 20
629.07706970
  0
VERTEX
  8
10
 10
675.88798946
 20
629.92077239
  0
VERTEX
  8
10
 10
675.85095423
 20
630.63605493
  0
VERTEX
  8
10
 10
675.83847734
 20
631.21281678
  0
VERTEX
  8
10
 10
675.92661354
 20
631.71391510
  0
VERTEX
  8
10
 10
676.18428870
 20
632.20854542
  0
VERTEX
  8
10
 10
676.60140268
 20
632.69611464
  0
VERTEX
  8
10
 10
677.16785537
 20
633.17602976
  0
VERTEX
  8
10
 10
677.87354659
 20
633.64769775
  0
VERTEX
  8
10
 10
678.70837622
 20
634.11052552
  0
VERTEX
  8
10
 10
679.66224414
 20
634.56392012
  0
VERTEX
  8
10
 10
680.72505016
 20
635.00728844
  0
VERTEX
  8
10
 10
681.88669417
 20
635.44003747
  0
VERTEX
  8
10
 10
683.13707603
 20
635.86157419
  0
VERTEX
  8
10
 10
684.46609560
 20
636.27130555
  0
VERTEX
  8
10
 10
685.86365276
 20
636.66863848
  0
VERTEX
  8
10
 10
687.31964732
 20
637.05298001
  0
VERTEX
  8
10
 10
688.82397919
 20
637.42373706
  0
VERTEX
  8
10
 10
690.36654820
 20
637.78031661
  0
VERTEX
  8
10
 10
691.93725423
 20
638.12212562
  0
VERTEX
  8
10
 10
693.52599712
 20
638.44857104
  0
VERTEX
  8
10
 10
695.12267677
 20
638.75905985
  0
VERTEX
  8
10
 10
696.71719297
 20
639.05299901
  0
VERTEX
  8
10
 10
697.91674946
 20
639.27505212
  0
VERTEX
  8
10
 10
698.47603232
 20
639.37697586
  0
VERTEX
  8
10
 10
699.71608419
 20
639.58330787
  0
VERTEX
  8
10
 10
700.31586244
 20
639.67295637
  0
VERTEX
  8
10
 10
701.51541893
 20
639.84880751
  0
VERTEX
  8
10
 10
702.87162098
 20
640.05139847
  0
VERTEX
  8
10
 10
704.30381806
 20
640.25369385
  0
VERTEX
  8
10
 10
705.67325092
 20
640.43588136
  0
VERTEX
  8
10
 10
706.96981935
 20
640.59736798
  0
VERTEX
  8
10
 10
708.18342330
 20
640.73756064
  0
VERTEX
  8
10
 10
709.30396253
 20
640.85586635
  0
VERTEX
  8
10
 10
710.32133700
 20
640.95169204
  0
VERTEX
  8
10
 10
711.22544650
 20
641.02444467
  0
VERTEX
  8
10
 10
712.00619093
 20
641.07353126
  0
VERTEX
  8
10
 10
712.65347015
 20
641.09835870
  0
VERTEX
  8
10
 10
713.17522495
 20
641.07924508
  0
VERTEX
  8
10
 10
713.67316617
 20
640.90507413
  0
VERTEX
  8
10
 10
714.16434544
 20
640.56641167
  0
VERTEX
  8
10
 10
714.64816954
 20
640.07335801
  0
VERTEX
  8
10
 10
715.12404527
 20
639.43601348
  0
VERTEX
  8
10
 10
715.59137942
 20
638.66447842
  0
VERTEX
  8
10
 10
716.04957875
 20
637.76885313
  0
VERTEX
  8
10
 10
716.49805008
 20
636.75923788
  0
VERTEX
  8
10
 10
716.93620018
 20
635.64573306
  0
VERTEX
  8
10
 10
717.36343584
 20
634.43843896
  0
VERTEX
  8
10
 10
717.77916382
 20
633.14745589
  0
VERTEX
  8
10
 10
718.18279098
 20
631.78288415
  0
VERTEX
  8
10
 10
718.57372402
 20
630.35482407
  0
VERTEX
  8
10
 10
718.95136979
 20
628.87337599
  0
VERTEX
  8
10
 10
719.31513508
 20
627.34864018
  0
VERTEX
  8
10
 10
719.66442664
 20
625.79071700
  0
VERTEX
  8
10
 10
719.99865127
 20
624.20970673
  0
VERTEX
  8
10
 10
720.31721574
 20
622.61570972
  0
VERTEX
  8
10
 10
720.61952688
 20
621.01882623
  0
VERTEX
  8
10
 10
720.90499148
 20
619.42915667
  0
VERTEX
  8
10
 10
721.17301627
 20
617.85680127
  0
VERTEX
  8
10
 10
721.42300807
 20
616.31186037
  0
VERTEX
  8
10
 10
721.65437368
 20
614.80443432
  0
VERTEX
  8
10
 10
721.86651987
 20
613.34462339
  0
SEQEND
  8
10
  0
POLYLINE
  8
10
 62
     4
 66
     1
  0
VERTEX
  8
10
 10
685.14886409
 20
650.12646912
  0
VERTEX
  8
10
 10
687.02311099
 20
650.90372920
  0
VERTEX
  8
10
 10
688.90835279
 20
651.62599846
  0
VERTEX
  8
10
 10
690.79710607
 20
652.29149745
  0
VERTEX
  8
10
 10
692.68188735
 20
652.89844667
  0
VERTEX
  8
10
 10
694.55521320
 20
653.44506673
  0
VERTEX
  8
10
 10
696.40960019
 20
653.92957810
  0
VERTEX
  8
10
 10
697.11998851
 20
654.09304179
  0
VERTEX
  8
10
 10
698.28606477
 20
654.35167937
  0
VERTEX
  8
10
 10
699.45214103
 20
654.59618052
  0
VERTEX
  8
10
 10
700.61821730
 20
654.80149132
  0
VERTEX
  8
10
 10
701.78429356
 20
654.99266569
  0
VERTEX
  8
10
 10
703.48809070
 20
655.21094784
  0
VERTEX
  8
10
 10
705.13553175
 20
655.35822400
  0
VERTEX
  8
10
 10
706.71913330
 20
655.43271474
  0
VERTEX
  8
10
 10
708.23871034
 20
655.42124700
  0
VERTEX
  8
10
 10
709.73270908
 20
655.25715357
  0
VERTEX
  8
10
 10
711.20641104
 20
654.93613867
  0
VERTEX
  8
10
 10
712.65803692
 20
654.46568608
  0
VERTEX
  8
10
 10
714.08580745
 20
653.85327964
  0
VERTEX
  8
10
 10
715.48794331
 20
653.10640310
  0
VERTEX
  8
10
 10
716.86266524
 20
652.23254025
  0
VERTEX
  8
10
 10
718.20819396
 20
651.23917494
  0
VERTEX
  8
10
 10
719.52275016
 20
650.13379088
  0
VERTEX
  8
10
 10
720.80455460
 20
648.92387195
  0
VERTEX
  8
10
 10
722.05182796
 20
647.61690188
  0
VERTEX
  8
10
 10
723.26279096
 20
646.22036448
  0
VERTEX
  8
10
 10
724.43566430
 20
644.74174357
  0
VERTEX
  8
10
 10
725.56866874
 20
643.18852291
  0
VERTEX
  8
10
 10
726.66002495
 20
641.56818631
  0
VERTEX
  8
10
 10
727.70795367
 20
639.88821759
  0
VERTEX
  8
10
 10
728.71067562
 20
638.15610048
  0
VERTEX
  8
10
 10
729.66641148
 20
636.37931882
  0
VERTEX
  8
10
 10
730.57338202
 20
634.56535640
  0
VERTEX
  8
10
 10
731.42980791
 20
632.72169701
  0
VERTEX
  8
10
 10
732.23390988
 20
630.85582443
  0
VERTEX
  8
10
 10
732.98390868
 20
628.97522248
  0
VERTEX
  8
10
 10
733.67802497
 20
627.08737495
  0
VERTEX
  8
10
 10
734.31447948
 20
625.19976559
  0
VERTEX
  8
10
 10
734.89149292
 20
623.31987824
  0
VERTEX
  8
10
 10
735.40728604
 20
621.45519668
  0
VERTEX
  8
10
 10
735.86007955
 20
619.61320468
  0
VERTEX
  8
10
 10
736.24809411
 20
617.80138608
  0
VERTEX
  8
10
 10
736.56955051
 20
616.02722466
  0
VERTEX
  8
10
 10
736.82266940
 20
614.29820419
  0
VERTEX
  8
10
 10
737.00567156
 20
612.62180848
  0
VERTEX
  8
10
 10
737.11677764
 20
611.00552134
  0
VERTEX
  8
10
 10
737.15420842
 20
609.45682654
  0
VERTEX
  8
10
 10
737.07137651
 20
607.95334662
  0
VERTEX
  8
10
 10
736.82787048
 20
606.46927385
  0
VERTEX
  8
10
 10
736.43117483
 20
605.00638752
  0
VERTEX
  8
10
 10
735.88877406
 20
603.56646690
  0
VERTEX
  8
10
 10
735.20815265
 20
602.15129130
  0
VERTEX
  8
10
 10
734.39679511
 20
600.76263998
  0
VERTEX
  8
10
 10
733.46218595
 20
599.40229224
  0
VERTEX
  8
10
 10
732.41180965
 20
598.07202739
  0
VERTEX
  8
10
 10
731.25315072
 20
596.77362466
  0
VERTEX
  8
10
 10
729.99369367
 20
595.50886335
  0
VERTEX
  8
10
 10
728.64092299
 20
594.27952277
  0
VERTEX
  8
10
 10
727.20232314
 20
593.08738218
  0
VERTEX
  8
10
 10
725.68537870
 20
591.93422088
  0
VERTEX
  8
10
 10
724.09757412
 20
590.82181814
  0
VERTEX
  8
10
 10
722.44639391
 20
589.75195326
  0
VERTEX
  8
10
 10
720.73932255
 20
588.72640552
  0
VERTEX
  8
10
 10
718.98384455
 20
587.74695421
  0
VERTEX
  8
10
 10
717.18744445
 20
586.81537860
  0
VERTEX
  8
10
 10
715.35760669
 20
585.93345796
  0
VERTEX
  8
10
 10
713.50181580
 20
585.10297163
  0
VERTEX
  8
10
 10
711.62755627
 20
584.32569883
  0
VERTEX
  8
10
 10
709.74231262
 20
583.60341888
  0
VERTEX
  8
10
 10
707.85356933
 20
582.93791107
  0
VERTEX
  8
10
 10
705.96881088
 20
582.33095470
  0
VERTEX
  8
10
 10
704.09552181
 20
581.78432898
  0
VERTEX
  8
10
 10
702.24118662
 20
581.29981327
  0
VERTEX
  8
10
 10
700.07636328
 20
580.80766017
  0
VERTEX
  8
10
 10
698.76480242
 20
580.54577204
  0
VERTEX
  8
10
 10
696.86674916
 20
580.23671888
  0
VERTEX
  8
10
 10
695.16307441
 20
580.01843592
  0
VERTEX
  8
10
 10
693.51577601
 20
579.87115940
  0
VERTEX
  8
10
 10
691.93233847
 20
579.79666855
  0
VERTEX
  8
10
 10
690.41285177
 20
579.80813629
  0
VERTEX
  8
10
 10
688.91885303
 20
579.97222983
  0
VERTEX
  8
10
 10
687.44515107
 20
580.29324508
  0
VERTEX
  8
10
 10
685.99352519
 20
580.76369846
  0
VERTEX
  8
10
 10
684.56575466
 20
581.37610634
  0
VERTEX
  8
10
 10
683.16361880
 20
582.12298508
  0
VERTEX
  8
10
 10
681.78889687
 20
582.99685112
  0
VERTEX
  8
10
 10
680.44336815
 20
583.99022077
  0
VERTEX
  8
10
 10
679.12881195
 20
585.09561048
  0
VERTEX
  8
10
 10
677.84700750
 20
586.30553657
  0
VERTEX
  8
10
 10
676.59973415
 20
587.61251546
  0
VERTEX
  8
10
 10
675.38877115
 20
589.00906355
  0
VERTEX
  8
10
 10
674.21589781
 20
590.48769715
  0
VERTEX
  8
10
 10
673.08289337
 20
592.04093272
  0
VERTEX
  8
10
 10
671.99153715
 20
593.66128664
  0
VERTEX
  8
10
 10
670.94360844
 20
595.34127523
  0
VERTEX
  8
10
 10
669.94088649
 20
597.07341490
  0
VERTEX
  8
10
 10
668.98515063
 20
598.85022208
  0
VERTEX
  8
10
 10
668.07818008
 20
600.66421308
  0
VERTEX
  8
10
 10
667.22175420
 20
602.50790435
  0
VERTEX
  8
10
 10
666.41765223
 20
604.37381221
  0
VERTEX
  8
10
 10
665.66765343
 20
606.25445308
  0
VERTEX
  8
10
 10
664.97353714
 20
608.14234333
  0
VERTEX
  8
10
 10
664.33708263
 20
610.02999937
  0
VERTEX
  8
10
 10
663.76006919
 20
611.90993755
  0
VERTEX
  8
10
 10
663.24427607
 20
613.77467426
  0
VERTEX
  8
10
 10
662.79148256
 20
615.61672586
  0
VERTEX
  8
10
 10
662.40346800
 20
617.42860881
  0
VERTEX
  8
10
 10
662.08201160
 20
619.20283939
  0
VERTEX
  8
10
 10
661.82889271
 20
620.93193408
  0
VERTEX
  8
10
 10
661.64589054
 20
622.60840917
  0
VERTEX
  8
10
 10
661.53478447
 20
624.22478112
  0
VERTEX
  8
10
 10
661.49735368
 20
625.77356626
  0
VERTEX
  8
10
 10
661.58018003
 20
627.27695584
  0
VERTEX
  8
10
 10
661.82367009
 20
628.76094384
  0
VERTEX
  8
10
 10
662.22034042
 20
630.22375076
  0
VERTEX
  8
10
 10
662.76270758
 20
631.66359715
  0
VERTEX
  8
10
 10
663.44328815
 20
633.07870360
  0
VERTEX
  8
10
 10
664.25459866
 20
634.46729057
  0
VERTEX
  8
10
 10
665.18915569
 20
635.82757867
  0
VERTEX
  8
10
 10
666.23947578
 20
637.15778841
  0
VERTEX
  8
10
 10
667.39807552
 20
638.45614030
  0
VERTEX
  8
10
 10
668.65747144
 20
639.72085492
  0
VERTEX
  8
10
 10
670.01018012
 20
640.95015278
  0
VERTEX
  8
10
 10
671.44871808
 20
642.14225446
  0
VERTEX
  8
10
 10
672.96560192
 20
643.29538048
  0
VERTEX
  8
10
 10
674.55334819
 20
644.40775134
  0
VERTEX
  8
10
 10
676.20447346
 20
645.47758764
  0
VERTEX
  8
10
 10
677.91149424
 20
646.50310989
  0
VERTEX
  8
10
 10
679.66692714
 20
647.48253861
  0
VERTEX
  8
10
 10
681.46328871
 20
648.41409435
  0
VERTEX
  8
10
 10
683.29309552
 20
649.29599767
  0
VERTEX
  8
10
 10
685.14886409
 20
650.12646912
  0
SEQEND
  8
10
  0
LINE
  8
1
 62
     4
 10
712.89281413
 20
603.76337742
 11
713.11926511
 21
603.98982840
  0
LINE
  8
1
 62
     4
 10
674.06941208
 20
565.54230082
 11
678.27084847
 21
569.74373722
  0
LINE
  8
1
 62
     4
 10
684.40998391
 20
575.88287266
 11
688.57437783
 21
580.04726658
  0
LINE
  8
1
 62
     4
 10
697.45838979
 20
588.93127853
 11
705.35348027
 21
596.82636901
  0
LINE
  8
1
 62
     4
 10
712.29048867
 20
603.76337742
 11
713.11926511
 21
604.59215385
  0
LINE
  8
1
 62
     4
 10
721.86714892
 20
613.34003766
 11
727.33636792
 21
618.80925667
  0
LINE
  8
1
 62
     4
 10
734.16631273
 20
625.63920147
 11
739.30079366
 21
630.77368241
  0
LINE
  8
1
 62
     4
 10
746.38970744
 20
637.86259619
 11
751.39716131
 21
642.87005005
  0
LINE
  8
1
 62
     4
 10
672.93697033
 20
566.10691535
 11
677.14009703
 21
570.31004205
  0
LINE
  8
1
 62
     4
 10
683.21811713
 20
576.38806215
 11
687.20207720
 21
580.37202222
  0
LINE
  8
1
 62
     4
 10
695.36915381
 20
588.53909883
 11
703.24713499
 21
596.41708001
  0
LINE
  8
1
 62
     4
 10
710.59343239
 20
603.76337742
 11
713.11926511
 21
606.28921013
  0
LINE
  8
1
 62
     4
 10
721.65172785
 20
614.82167287
 11
726.99947488
 21
620.16941990
  0
LINE
  8
1
 62
     4
 10
733.73839205
 20
626.90833707
 11
738.81264054
 21
631.98258556
  0
LINE
  8
1
 62
     4
 10
745.85651965
 20
639.02646467
 11
750.83254678
 21
644.00249180
  0
LINE
  8
1
 62
     4
 10
671.82494104
 20
566.69194233
 11
676.03209247
 21
570.89909377
  0
LINE
  8
1
 62
     4
 10
682.06428619
 20
576.93128748
 11
685.92576239
 21
580.79276369
  0
LINE
  8
1
 62
     4
 10
693.36531625
 20
588.23231755
 11
701.17217912
 21
596.03918042
  0
LINE
  8
1
 62
     4
 10
708.89637612
 20
603.76337742
 11
713.11926511
 21
607.98626640
  0
LINE
  8
1
 62
     4
 10
721.42591559
 20
616.29291689
 11
726.64614979
 21
621.51315108
  0
LINE
  8
1
 62
     4
 10
733.28616064
 20
628.15316193
 11
738.31228303
 21
633.17928432
  0
LINE
  8
1
 62
     4
 10
745.29510042
 20
640.16210172
 11
750.24751979
 21
645.11452109
  0
LINE
  8
1
 62
     4
 10
670.73291522
 20
567.29697279
 11
674.94949681
 21
571.51355438
  0
LINE
  8
1
 62
     4
 10
680.96117331
 20
577.52523088
 11
684.73811776
 21
581.30217533
  0
LINE
  8
1
 62
     4
 10
691.44107567
 20
588.00513325
 11
699.12417995
 21
595.68823752
  0
LINE
  8
1
 62
     4
 10
707.19931984
 20
603.76337742
 11
713.11926511
 21
609.68332268
  0
LINE
  8
1
 62
     4
 10
721.18969148
 20
617.75374905
 11
726.27739770
 21
622.84145527
  0
LINE
  8
1
 62
     4
 10
732.82061626
 20
629.38467384
 11
737.78937414
 21
634.35343171
  0
LINE
  8
1
 62
     4
 10
744.72191952
 20
641.28597709
 11
749.64248934
 21
646.20654691
  0
LINE
  8
1
 62
     4
 10
669.66052460
 20
567.92163845
 11
673.88962632
 21
572.15074017
  0
LINE
  8
1
 62
     4
 10
679.88060554
 20
578.14171938
 11
683.61919727
 21
581.88031111
  0
LINE
  8
1
 62
     4
 10
689.62357157
 20
587.88468542
 11
697.11490899
 21
595.37602283
  0
LINE
  8
1
 62
     4
 10
705.50226357
 20
603.76337742
 11
713.11926511
 21
611.38037895
  0
LINE
  8
1
 62
     4
 10
720.94330111
 20
619.20441495
 11
725.89397826
 21
624.15509210
  0
LINE
  8
1
 62
     4
 10
732.33677615
 20
630.59789000
 11
737.24506252
 21
635.50617637
  0
LINE
  8
1
 62
     4
 10
744.12206129
 20
642.38317513
 11
749.01782368
 21
647.27893753
  0
LINE
  8
1
 62
     4
 10
668.60743856
 20
568.56560868
 11
672.85256572
 21
572.81073584
  0
LINE
  8
1
 62
     4
 10
678.83839973
 20
578.79656985
 11
682.55297890
 21
582.51114902
  0
LINE
  8
1
 62
     4
 10
687.97723413
 20
587.93540425
 11
695.12603485
 21
595.08420497
  0
LINE
  8
1
 62
     4
 10
703.80520730
 20
603.76337742
 11
713.11926511
 21
613.07743523
  0
LINE
  8
1
 62
     4
 10
720.68668302
 20
620.64485315
 11
725.49059758
 21
625.44876770
  0
LINE
  8
1
 62
     4
 10
731.83147693
 20
631.78964705
 11
736.68837321
 21
636.64654334
  0
LINE
  8
1
 62
     4
 10
743.51008340
 20
643.46825352
 11
748.37385345
 21
648.33202357
  0
LINE
  8
1
 62
     4
 10
667.57336142
 20
569.22858781
 11
671.83694487
 21
573.49217126
  0
LINE
  8
1
 62
     4
 10
677.82794278
 20
579.48316918
 11
681.53158876
 21
583.18681516
  0
LINE
  8
1
 62
     4
 10
686.62435626
 20
588.27958265
 11
693.16115961
 21
594.81638601
  0
LINE
  8
1
 62
     4
 10
702.10815102
 20
603.76337742
 11
713.11926511
 21
614.77449150
  0
LINE
  8
1
 62
     4
 10
720.41961017
 20
622.07483657
 11
725.07292871
 21
626.72815511
  0
LINE
  8
1
 62
     4
 10
731.31456286
 20
632.96978925
 11
736.10218771
 21
637.75741410
  0
LINE
  8
1
 62
     4
 10
742.87365453
 20
644.52888092
 11
747.71087432
 21
649.36610071
  0
LINE
  8
1
 62
     4
 10
666.55803020
 20
569.91031287
 11
670.84322959
 21
574.19551226
  0
LINE
  8
1
 62
     4
 10
676.83475404
 20
580.18703671
 11
680.55530095
 21
583.90758362
  0
LINE
  8
1
 62
     4
 10
685.46278605
 20
588.81506872
 11
691.22557163
 21
594.57785430
  0
LINE
  8
1
 62
     4
 10
700.41109475
 20
603.76337742
 11
713.11926511
 21
616.47154778
  0
LINE
  8
1
 62
     4
 10
720.14169216
 20
623.49397483
 11
724.64112206
 21
627.99340473
  0
LINE
  8
1
 62
     4
 10
730.77628248
 20
634.12856515
 11
735.50822895
 21
638.86051162
  0
LINE
  8
1
 62
     4
 10
742.22377313
 20
645.57605580
 11
747.02914926
 21
650.38143193
  0
LINE
  8
1
 62
     4
 10
665.56121262
 20
570.61055156
 11
669.86877082
 21
574.91810977
  0
LINE
  8
1
 62
     4
 10
675.88603457
 20
580.93537352
 11
679.62719176
 21
584.67653071
  0
LINE
  8
1
 62
     4
 10
684.43978238
 20
589.48912132
 11
689.32010156
 21
594.36944050
  0
LINE
  8
1
 62
     4
 10
698.71403847
 20
603.76337742
 11
713.11926511
 21
618.16860405
  0
LINE
  8
1
 62
     4
 10
719.85236373
 20
624.90170268
 11
724.19524476
 21
629.24458371
  0
LINE
  8
1
 62
     4
 10
730.22092993
 20
635.27026888
 11
734.88563885
 21
639.93497779
  0
LINE
  8
1
 62
     4
 10
741.55215512
 20
646.60149407
 11
746.32891057
 21
651.37824951
  0
LINE
  8
1
 62
     4
 10
664.58270538
 20
571.32910060
 11
668.91658840
 21
575.66298362
  0
LINE
  8
1
 62
     4
 10
674.95001576
 20
581.69641098
 11
678.72776918
 21
585.47416440
  0
LINE
  8
1
 62
     4
 10
683.51010459
 20
590.25649981
 11
687.45974584
 21
594.20614106
  0
LINE
  8
1
 62
     4
 10
697.01698220
 20
603.76337742
 11
713.11926511
 21
619.86566033
  0
LINE
  8
1
 62
     4
 10
719.55085925
 20
626.29725447
 11
723.72970212
 21
630.47609734
  0
LINE
  8
1
 62
     4
 10
729.65469863
 20
636.40109385
 11
734.25172141
 21
640.99811664
  0
LINE
  8
1
 62
     4
 10
740.86498564
 20
647.61138086
 11
745.61036153
 21
652.35675675
  0
LINE
  8
1
 62
     4
 10
663.62233274
 20
572.06578423
 11
667.98085850
 21
576.42430999
  0
LINE
  8
1
 62
     4
 10
674.04483324
 20
582.48828473
 11
677.85476376
 21
586.29821525
  0
LINE
  8
1
 62
     4
 10
682.65050363
 20
591.09395513
 11
685.69708739
 21
594.14053889
  0
LINE
  8
1
 62
     4
 10
695.31992592
 20
603.76337742
 11
713.11926511
 21
621.56271660
  0
LINE
  8
1
 62
     4
 10
719.23617073
 20
627.67962222
 11
723.24735320
 21
631.69080470
  0
LINE
  8
1
 62
     4
 10
729.06112969
 20
637.50458118
 11
733.59643735
 21
642.03988884
  0
LINE
  8
1
 62
     4
 10
740.15913585
 20
648.60258735
 11
744.87367789
 21
653.31712939
  0
LINE
  8
1
 62
     4
 10
662.67994526
 20
572.82045303
 11
667.06873178
 21
577.20923955
  0
LINE
  8
1
 62
     4
 10
673.16144744
 20
583.30195521
 11
677.02567624
 21
587.16618401
  0
LINE
  8
1
 62
     4
 10
681.84864874
 20
591.98915651
 11
684.50718763
 21
594.64769541
  0
LINE
  8
1
 62
     4
 10
693.62286965
 20
603.76337742
 11
713.11926511
 21
623.25977288
  0
LINE
  8
1
 62
     4
 10
718.90698462
 20
629.04749239
 11
722.74947129
 21
632.88997906
  0
LINE
  8
1
 62
     4
 10
728.45582520
 20
638.59633297
 11
732.92288383
 21
643.06339160
  0
LINE
  8
1
 62
     4
 10
739.43503313
 20
649.57554090
 11
744.11900910
 21
654.25951687
  0
LINE
  8
1
 62
     4
 10
661.75541881
 20
573.59298286
 11
666.16984538
 21
578.00740943
  0
LINE
  8
1
 62
     4
 10
672.29633889
 20
584.13390294
 11
676.21669402
 21
588.05425807
  0
LINE
  8
1
 62
     4
 10
681.09850803
 20
592.93607208
 11
683.70996168
 21
595.54752572
  0
LINE
  8
1
 62
     4
 10
691.92581337
 20
603.76337742
 11
713.11926511
 21
624.95682915
  0
LINE
  8
1
 62
     4
 10
718.56158893
 20
630.39915298
 11
722.23548231
 21
634.07304635
  0
LINE
  8
1
 62
     4
 10
727.83360373
 20
639.67116777
 11
732.23471596
 21
644.07228001
  0
LINE
  8
1
 62
     4
 10
738.69552724
 20
650.53309129
 11
743.34647927
 21
655.18404332
  0
LINE
  8
1
 62
     4
 10
660.84865371
 20
574.38327403
 11
665.29660033
 21
578.83122065
  0
LINE
  8
1
 62
     4
 10
671.46127687
 20
584.99589719
 11
675.42855841
 21
588.96317873
  0
LINE
  8
1
 62
     4
 10
680.38831213
 20
593.92293245
 11
683.04956296
 21
596.58418328
  0
LINE
  8
1
 62
     4
 10
690.22875710
 20
603.76337742
 11
713.11926511
 21
626.65388543
  0
LINE
  8
1
 62
     4
 10
718.19686223
 20
631.73148255
 11
721.69869247
 21
635.23331279
  0
LINE
  8
1
 62
     4
 10
727.18767423
 20
640.72229455
 11
731.52125726
 21
645.05587758
  0
LINE
  8
1
 62
     4
 10
737.93459655
 20
651.46921687
 11
742.55618810
 21
656.09080842
  0
LINE
  8
1
 62
     4
 10
659.95957408
 20
575.19125067
 11
664.43314145
 21
579.66481805
  0
LINE
  8
1
 62
     4
 10
670.63484074
 20
585.86651734
 11
674.67598797
 21
589.90766456
  0
LINE
  8
1
 62
     4
 10
679.71224746
 20
594.94392405
 11
682.48676799
 21
597.71844459
  0
LINE
  8
1
 62
     4
 10
688.53170082
 20
603.76337742
 11
713.11926511
 21
628.35094170
  0
LINE
  8
1
 62
     4
 10
717.81034907
 20
633.04202566
 11
721.14063745
 21
636.37231405
  0
LINE
  8
1
 62
     4
 10
726.52982202
 20
641.76149861
 11
730.79974948
 21
646.03142607
  0
LINE
  8
1
 62
     4
 10
737.16165395
 20
652.39333055
 11
741.74821146
 21
656.97988805
  0
LINE
  8
1
 62
     4
 10
659.08812733
 20
576.01686020
 11
663.59788280
 21
580.52661567
  0
LINE
  8
1
 62
     4
 10
669.84417764
 20
586.77291051
 11
673.93881587
 21
590.86754874
  0
LINE
  8
1
 62
     4
 10
679.06592853
 20
595.99466140
 11
681.98026179
 21
598.90899466
  0
LINE
  8
1
 62
     4
 10
686.83464455
 20
603.76337742
 11
713.11926511
 21
630.04799798
  0
LINE
  8
1
 62
     4
 10
717.39906497
 20
634.32779784
 11
720.56236283
 21
637.49109570
  0
LINE
  8
1
 62
     4
 10
725.84681954
 20
642.77555241
 11
730.04552496
 21
646.97425783
  0
LINE
  8
1
 62
     4
 10
736.36375617
 20
653.29248904
 11
740.92260193
 21
657.85133480
  0
LINE
  8
1
 62
     4
 10
658.23428384
 20
576.86007298
 11
662.76884858
 21
581.39463773
  0
LINE
  8
1
 62
     4
 10
669.06162382
 20
587.68741297
 11
673.22303013
 21
591.84881927
  0
LINE
  8
1
 62
     4
 10
678.44598707
 20
597.07177622
 11
681.51699239
 21
600.14278154
  0
LINE
  8
1
 62
     4
 10
685.51656003
 20
604.14234917
 11
712.74127158
 21
631.36706072
  0
LINE
  8
1
 62
     4
 10
716.95808923
 20
635.58387838
 11
719.96211090
 21
638.58790005
  0
LINE
  8
1
 62
     4
 10
725.14438233
 20
643.77017148
 11
729.28413388
 21
647.90992302
  0
LINE
  8
1
 62
     4
 10
735.55725025
 20
654.18303940
 11
740.07938915
 21
658.70517829
  0
LINE
  8
1
 62
     4
 10
657.39803675
 20
577.72088217
 11
661.97094258
 21
582.29378800
  0
LINE
  8
1
 62
     4
 10
668.30604141
 20
588.62888683
 11
672.53361284
 21
592.85645826
  0
LINE
  8
1
 62
     4
 10
677.85232761
 20
598.17517303
 11
681.08803754
 21
601.41088296
  0
LINE
  8
1
 62
     4
 10
685.51656003
 20
605.83940545
 11
711.04421531
 21
631.36706072
  0
LINE
  8
1
 62
     4
 10
716.47908572
 20
636.80193114
 11
719.33593533
 21
639.65878075
  0
LINE
  8
1
 62
     4
 10
724.42824789
 20
644.75109331
 11
728.49347937
 21
648.81632479
  0
LINE
  8
1
 62
     4
 10
734.72200172
 20
655.04484714
 11
739.21857996
 21
659.54142538
  0
LINE
  8
1
 62
     4
 10
656.57940192
 20
578.59930361
 11
661.17570550
 21
583.19560719
  0
LINE
  8
1
 62
     4
 10
667.56533412
 20
589.58523582
 11
671.85702627
 21
593.87692797
  0
LINE
  8
1
 62
     4
 10
677.28575829
 20
599.30565999
 11
680.68709732
 21
602.70699901
  0
LINE
  8
1
 62
     4
 10
685.51656003
 20
607.53646172
 11
709.34715903
 21
631.36706072
  0
LINE
  8
1
 62
     4
 10
715.94783201
 20
637.96773371
 11
718.67532967
 21
640.69523137
  0
LINE
  8
1
 62
     4
 10
723.67756474
 20
645.69746643
 11
727.68900232
 21
649.70890402
  0
LINE
  8
1
 62
     4
 10
733.88145590
 20
655.90135759
 11
738.34015852
 21
660.36006021
  0
LINE
  8
1
 62
     4
 10
655.77841802
 20
579.49537599
 11
660.41476855
 21
584.13172652
  0
LINE
  8
1
 62
     4
 10
666.84382069
 20
590.56077866
 11
671.20510255
 21
594.92206052
  0
LINE
  8
1
 62
     4
 10
676.73845567
 20
600.45541364
 11
680.30960350
 21
604.02656147
  0
LINE
  8
1
 62
     4
 10
685.51656003
 20
609.23351800
 11
707.65010276
 21
631.36706072
  0
LINE
  8
1
 62
     4
 10
715.34849883
 20
639.06545680
 11
717.98322940
 21
641.70018737
  0
LINE
  8
1
 62
     4
 10
722.91012123
 20
646.62707920
 11
726.86195194
 21
650.57890991
  0
LINE
  8
1
 62
     4
 10
733.00822273
 20
656.72518070
 11
737.44408614
 21
661.16104411
  0
LINE
  8
1
 62
     4
 10
654.99514682
 20
580.40916106
 11
659.65383160
 21
585.06784584
  0
LINE
  8
1
 62
     4
 10
666.14359271
 20
591.55760695
 11
670.57097024
 21
595.98498449
  0
LINE
  8
1
 62
     4
 10
676.20919686
 20
601.62321111
 11
679.95217043
 21
605.36618467
  0
LINE
  8
1
 62
     4
 10
685.51656003
 20
610.93057427
 11
705.95304648
 21
631.36706072
  0
LINE
  8
1
 62
     4
 10
714.65294626
 20
640.06696051
 11
717.25482804
 21
642.66884228
  0
LINE
  8
1
 62
     4
 10
722.12198238
 20
647.53599662
 11
726.01179883
 21
651.42581307
  0
LINE
  8
1
 62
     4
 10
732.13279187
 20
657.54680612
 11
736.53030107
 21
661.94431531
  0
LINE
  8
1
 62
     4
 10
654.22967354
 20
581.34074406
 11
658.92894754
 21
586.04001806
  0
LINE
  8
1
 62
     4
 10
665.45542074
 20
592.56649126
 11
669.94875391
 21
597.05982442
  0
LINE
  8
1
 62
     4
 10
675.69761981
 20
602.80869032
 11
679.61224420
 21
606.72331471
  0
LINE
  8
1
 62
     4
 10
685.51656003
 20
612.62763054
 11
704.25599021
 21
631.36706072
  0
LINE
  8
1
 62
     4
 10
713.74468926
 20
640.85575978
 11
716.48375814
 21
643.59482866
  0
LINE
  8
1
 62
     4
 10
721.29689585
 20
648.40796637
 11
725.14670147
 21
652.25777199
  0
LINE
  8
1
 62
     4
 10
731.22067870
 20
658.33174922
 11
735.59871807
 21
662.70978859
  0
LINE
  8
1
 62
     4
 10
653.48210746
 20
582.29023426
 11
658.20484061
 21
587.01296741
  0
LINE
  8
1
 62
     4
 10
664.79491915
 20
593.60304594
 11
669.35482821
 21
598.16295501
  0
LINE
  8
1
 62
     4
 10
675.20908012
 20
604.01720691
 11
679.28787212
 21
608.09599892
  0
LINE
  8
1
 62
     4
 10
685.51656003
 20
614.32468682
 11
702.55893393
 21
631.36706072
  0
LINE
  8
1
 62
     4
 10
712.27574359
 20
641.08387038
 11
715.66140343
 21
644.46953023
  0
LINE
  8
1
 62
     4
 10
720.45021390
 20
649.25834070
 11
724.24742292
 21
653.05554971
  0
LINE
  8
1
 62
     4
 10
730.30856553
 20
659.11669233
 11
734.64922787
 21
663.45735467
  0
LINE
  8
1
 62
     4
 10
652.75258262
 20
583.25776569
 11
657.51365682
 21
588.01883989
  0
LINE
  8
1
 62
     4
 10
664.14128488
 20
594.64646795
 11
668.77178401
 21
599.27696707
  0
LINE
  8
1
 62
     4
 10
674.73556720
 20
605.24075027
 11
678.97754746
 21
609.48273052
  0
LINE
  8
1
 62
     4
 10
685.51656003
 20
616.02174309
 11
700.86187766
 21
631.36706072
  0
LINE
  8
1
 62
     4
 10
710.45746286
 20
640.96264592
 11
714.77581163
 21
645.28099470
  0
LINE
  8
1
 62
     4
 10
719.57720597
 20
650.08238904
 11
723.33706646
 21
653.84224953
  0
LINE
  8
1
 62
     4
 10
729.35694760
 20
659.86213067
 11
733.68169644
 21
664.18687951
  0
LINE
  8
1
 62
     4
 10
652.04125872
 20
584.24349807
 11
656.82648522
 21
589.02872457
  0
LINE
  8
1
 62
     4
 10
663.51869394
 20
595.72093329
 11
668.20610895
 21
600.40834830
  0
LINE
  8
1
 62
     4
 10
674.27676521
 20
606.47900455
 11
678.68140044
 21
610.88363978
  0
LINE
  8
1
 62
     4
 10
685.51656003
 20
617.71879937
 11
699.16482138
 21
631.36706072
  0
LINE
  8
1
 62
     4
 10
708.57686006
 20
640.77909941
 11
713.80990874
 21
646.01214809
  0
LINE
  8
1
 62
     4
 10
718.65838171
 20
650.86062105
 11
722.38936962
 21
654.59160896
  0
LINE
  8
1
 62
     4
 10
728.40478021
 20
660.60701956
 11
732.69596406
 21
664.89820341
  0
LINE
  8
1
 62
     4
 10
651.34832227
 20
585.24761789
 11
656.16967633
 21
590.06897195
  0
LINE
  8
1
 62
     4
 10
662.90497322
 20
596.80426884
 11
667.66163812
 21
601.56093374
  0
LINE
  8
1
 62
     4
 10
673.83247644
 20
607.73177206
 11
678.39743781
 21
612.29673343
  0
LINE
  8
1
 62
     4
 10
685.51656003
 20
619.41585564
 11
697.46776511
 21
631.36706072
  0
LINE
  8
1
 62
     4
 10
706.65941127
 20
640.55870689
 11
712.73842840
 21
646.63772402
  0
LINE
  8
1
 62
     4
 10
717.70866629
 20
651.60796191
 11
721.42261605
 21
655.32191167
  0
LINE
  8
1
 62
     4
 10
727.41384956
 20
661.31314518
 11
731.69184424
 21
665.59113986
  0
LINE
  8
1
 62
     4
 10
650.67398785
 20
586.27033974
 11
655.51979494
 21
591.11614683
  0
LINE
  8
1
 62
     4
 10
662.31515626
 20
597.91150815
 11
667.12833363
 21
602.72468553
  0
LINE
  8
1
 62
     4
 10
673.40891732
 20
609.00526921
 11
678.12450835
 21
613.72086024
  0
LINE
  8
1
 62
     4
 10
685.51656003
 20
621.11291192
 11
695.77070883
 21
631.36706072
  0
LINE
  8
1
 62
     4
 10
704.71159160
 20
640.30794349
 11
711.52233043
 21
647.11868232
  0
LINE
  8
1
 62
     4
 10
716.72420360
 20
652.32055549
 11
720.42944149
 21
656.02579338
  0
LINE
  8
1
 62
     4
 10
726.42015064
 20
662.01650254
 11
730.66912239
 21
666.26547428
  0
LINE
  8
1
 62
     4
 10
650.01849966
 20
587.31190783
 11
654.89842160
 21
592.19182977
  0
LINE
  8
1
 62
     4
 10
661.74212449
 20
599.03553266
 11
666.61724701
 21
603.91065518
  0
LINE
  8
1
 62
     4
 10
672.99921628
 20
610.29262445
 11
677.86212406
 21
615.15553223
  0
LINE
  8
1
 62
     4
 10
685.51656003
 20
622.80996819
 11
694.07365256
 21
631.36706072
  0
LINE
  8
1
 62
     4
 10
702.73803509
 20
640.03144326
 11
710.05635006
 21
647.34975823
  0
LINE
  8
1
 62
     4
 10
715.68667079
 20
652.98007896
 11
719.39954836
 21
656.69295652
  0
LINE
  8
1
 62
     4
 10
725.38734092
 20
662.68074909
 11
729.62755430
 21
666.92096247
  0
LINE
  8
1
 62
     4
 10
649.38213339
 20
588.37259783
 11
654.28644585
 21
593.27691029
  0
LINE
  8
1
 62
     4
 10
661.18543772
 20
600.17590216
 11
666.12277068
 21
605.11323512
  0
LINE
  8
1
 62
     4
 10
672.60374556
 20
611.59421000
 11
677.60996452
 21
616.60042896
  0
LINE
  8
1
 62
     4
 10
685.51656003
 20
624.50702447
 11
692.37659628
 21
631.36706072
  0
LINE
  8
1
 62
     4
 10
700.74547119
 20
639.73593563
 11
708.32234051
 21
647.31280495
  0
LINE
  8
1
 62
     4
 10
714.59277075
 20
653.58323520
 11
718.35112268
 21
657.34158712
  0
LINE
  8
1
 62
     4
 10
724.35029778
 20
663.34076222
 11
728.56686430
 21
667.55732874
  0
LINE
  8
1
 62
     4
 10
648.76519824
 20
589.45271895
 11
653.70199974
 21
594.38952046
  0
LINE
  8
1
 62
     4
 10
660.65454052
 20
601.34206123
 11
665.64057676
 21
606.32809748
  0
LINE
  8
1
 62
     4
 10
672.22292207
 20
612.91044278
 11
677.36786893
 21
618.05538965
  0
LINE
  8
1
 62
     4
 10
685.51656003
 20
626.20408074
 11
690.67954001
 21
631.36706072
  0
LINE
  8
1
 62
     4
 10
698.73205465
 20
639.41957537
 11
706.45474926
 21
647.14226998
  0
LINE
  8
1
 62
     4
 10
713.44193283
 20
654.12945355
 11
717.25567124
 21
657.94319196
  0
LINE
  8
1
 62
     4
 10
723.27237163
 20
663.95989235
 11
727.48674317
 21
668.17426389
  0
LINE
  8
1
 62
     4
 10
648.16803940
 20
590.55261639
 11
653.12882308
 21
595.51340007
  0
LINE
  8
1
 62
     4
 10
660.13322885
 20
602.51780584
 11
665.18436010
 21
607.56893709
  0
LINE
  8
1
 62
     4
 10
671.85942148
 20
614.24399847
 11
677.13584222
 21
619.52041921
  0
LINE
  8
1
 62
     4
 10
685.51656003
 20
627.90113702
 11
688.98248373
 21
631.36706072
  0
LINE
  8
1
 62
     4
 10
696.65739946
 20
639.04197645
 11
704.50382121
 21
646.88839820
  0
LINE
  8
1
 62
     4
 10
712.22231934
 20
654.60689634
 11
716.12941627
 21
658.51399326
  0
LINE
  8
1
 62
     4
 10
722.18979431
 20
664.57437130
 11
726.38684574
 21
668.77142273
  0
LINE
  8
1
 62
     4
 10
647.59104086
 20
591.67267412
 11
652.58329244
 21
596.66492570
  0
LINE
  8
1
 62
     4
 10
659.64508160
 20
603.72671487
 11
664.74336778
 21
608.82500105
  0
LINE
  8
1
 62
     4
 10
671.51412121
 20
615.59575448
 11
676.91407791
 21
620.99571118
  0
LINE
  8
1
 62
     4
 10
685.51656003
 20
629.59819329
 11
687.28542746
 21
631.36706072
  0
LINE
  8
1
 62
     4
 10
694.56994238
 20
638.65157565
 11
702.46096454
 21
646.54259781
  0
LINE
  8
1
 62
     4
 10
710.91744957
 20
654.99908283
 11
714.97560060
 21
659.05723387
  0
LINE
  8
1
 62
     4
 10
721.06269609
 20
665.14432935
 11
725.26678801
 21
669.34842127
  0
LINE
  8
1
 62
     4
 10
647.03462867
 20
592.81331821
 11
652.05011089
 21
597.82880043
  0
LINE
  8
1
 62
     4
 10
659.16988535
 20
604.94857489
 11
664.31693894
 21
610.09562849
  0
LINE
  8
1
 62
     4
 10
671.18551275
 20
616.96420229
 11
676.70300427
 21
622.48169381
  0
LINE
  8
1
 62
     4
 10
685.51656003
 20
631.29524957
 11
685.58837118
 21
631.36706072
  0
LINE
  8
1
 62
     4
 10
692.44847963
 20
638.22716917
 11
700.34274183
 21
646.12143137
  0
LINE
  8
1
 62
     4
 10
709.50362544
 20
655.28231498
 11
713.75814540
 21
659.53683494
  0
LINE
  8
1
 62
     4
 10
719.93196355
 20
665.71065310
 11
724.12614392
 21
669.90483346
  0
LINE
  8
1
 62
     4
 10
646.49927469
 20
593.97502051
 11
651.54607182
 21
599.02181764
  0
LINE
  8
1
 62
     4
 10
658.71783346
 20
606.19357928
 11
663.91838642
 21
611.39413223
  0
LINE
  8
1
 62
     4
 10
670.87509426
 20
618.35084008
 11
676.50336679
 21
623.97911260
  0
LINE
  8
1
 62
     4
 10
690.28593667
 20
637.76168249
 11
698.15114059
 21
645.62688641
  0
LINE
  8
1
 62
     4
 10
707.94769736
 20
655.42344318
 11
712.50398659
 21
659.97973241
  0
LINE
  8
1
 62
     4
 10
718.75062298
 20
666.22636880
 11
722.96444162
 21
670.44018743
  0
LINE
  8
1
 62
     4
 10
645.98550099
 20
595.15830308
 11
651.05441749
 21
600.22721958
  0
LINE
  8
1
 62
     4
 10
658.29254912
 20
607.46535121
 11
663.53842854
 21
612.71123063
  0
LINE
  8
1
 62
     4
 10
670.58487793
 20
619.75768002
 11
676.31637224
 21
625.48917433
  0
LINE
  8
1
 62
     4
 10
688.06351003
 20
637.23631213
 11
695.88629234
 21
645.05909443
  0
LINE
  8
1
 62
     4
 10
706.23724520
 20
655.41004729
 11
711.20827916
 21
660.38108126
  0
LINE
  8
1
 62
     4
 10
717.56367670
 20
666.73647879
 11
721.78115905
 21
670.95396114
  0
LINE
  8
1
 62
     4
 10
645.49388484
 20
596.36374320
 11
650.59515832
 21
601.46501669
  0
LINE
  8
1
 62
     4
 10
657.88219316
 20
608.75205152
 11
663.17729753
 21
614.04715590
  0
LINE
  8
1
 62
     4
 10
670.31762571
 20
621.18748408
 11
676.14394494
 21
627.01380330
  0
LINE
  8
1
 62
     4
 10
685.77300985
 20
636.64286822
 11
693.53642164
 21
644.40628000
  0
LINE
  8
1
 62
     4
 10
704.42483119
 20
655.29468955
 11
709.83662252
 21
660.70648088
  0
LINE
  8
1
 62
     4
 10
716.32668402
 20
667.19654239
 11
720.57571893
 21
671.44557729
  0
LINE
  8
1
 62
     4
 10
645.02506467
 20
597.59197931
 11
650.14694321
 21
602.71385785
  0
LINE
  8
1
 62
     4
 10
657.50808600
 20
610.07500064
 11
662.84245312
 21
615.40936776
  0
LINE
  8
1
 62
     4
 10
670.07722922
 20
622.64414386
 11
675.99423733
 21
628.56115197
  0
LINE
  8
1
 62
     4
 10
683.36489531
 20
635.93180995
 11
691.08069785
 21
643.64761249
  0
LINE
  8
1
 62
     4
 10
702.52000706
 20
655.08692170
 11
708.40041524
 21
660.96732988
  0
LINE
  8
1
 62
     4
 10
715.07557766
 20
667.64249230
 11
719.34748282
 21
671.91439746
  0
LINE
  8
1
 62
     4
 10
644.57974693
 20
598.84371784
 11
649.73663270
 21
604.00060362
  0
LINE
  8
1
 62
     4
 10
657.15672402
 20
611.42069493
 11
662.53772198
 21
616.80169290
  0
LINE
  8
1
 62
     4
 10
669.86934756
 20
624.13331847
 11
675.87660850
 21
630.14057941
  0
LINE
  8
1
 62
     4
 10
680.75416297
 20
635.01813388
 11
688.51872562
 21
642.78269654
  0
LINE
  8
1
 62
     4
 10
700.52027588
 20
654.78424679
 11
706.89379971
 21
661.15777063
  0
LINE
  8
1
 62
     4
 10
713.77919249
 20
668.04316340
 11
718.09574429
 21
672.35971520
  0
LINE
  8
1
 62
     4
 10
644.15871411
 20
600.11974130
 11
649.33420599
 21
605.29523318
  0
LINE
  8
1
 62
     4
 10
656.82618936
 20
612.78721655
 11
662.25991285
 21
618.22094004
  0
LINE
  8
1
 62
     4
 10
669.70253365
 20
625.66356084
 11
676.11553021
 21
632.07655741
  0
LINE
  8
1
 62
     4
 10
677.31002659
 20
633.27105378
 11
685.79643204
 21
641.75745923
  0
LINE
  8
1
 62
     4
 10
698.41840004
 20
654.37942723
 11
705.30270593
 21
661.26373312
  0
LINE
  8
1
 62
     4
 10
712.45468088
 20
668.41570807
 11
716.81972083
 21
672.78074802
  0
LINE
  8
1
 62
     4
 10
643.76283430
 20
601.42091777
 11
648.97812087
 21
606.63620434
  0
LINE
  8
1
 62
     4
 10
656.54149331
 20
614.19957677
 11
662.01340670
 21
619.67149017
  0
LINE
  8
1
 62
     4
 10
669.59458186
 20
627.25266533
 11
682.85973222
 21
640.51781569
  0
LINE
  8
1
 62
     4
 10
696.22264808
 20
653.88073154
 11
703.61205342
 21
661.27013689
  0
LINE
  8
1
 62
     4
 10
711.09364915
 20
668.75173261
 11
715.51854436
 21
673.17662783
  0
LINE
  8
1
 62
     4
 10
643.39307238
 20
602.74821212
 11
648.63083813
 21
607.98597787
  0
LINE
  8
1
 62
     4
 10
656.28496265
 20
615.64010239
 11
661.80408222
 21
621.15922196
  0
LINE
  8
1
 62
     4
 10
669.64353946
 20
628.99867920
 11
679.55655898
 21
638.91169872
  0
LINE
  8
1
 62
     4
 10
693.89822301
 20
653.25336275
 11
701.82816662
 21
661.18330636
  0
LINE
  8
1
 62
     4
 10
709.68390126
 20
669.03904100
 11
714.19125000
 21
673.54638975
  0
LINE
  8
1
 62
     4
 10
643.05050342
 20
604.10269944
 11
648.32917774
 21
609.38137376
  0
LINE
  8
1
 62
     4
 10
656.05979349
 20
617.11198950
 11
661.64012277
 21
622.69231879
  0
LINE
  8
1
 62
     4
 10
670.69798844
 20
631.75018446
 11
675.18825090
 21
636.24044692
  0
LINE
  8
1
 62
     4
 10
691.44933696
 20
652.50153297
 11
699.94892133
 21
661.00111735
  0
LINE
  8
1
 62
     4
 10
708.25193310
 20
669.30412912
 11
712.83676269
 21
673.88895871
  0
LINE
  8
1
 62
     4
 10
642.73632870
 20
605.48558099
 11
648.04714984
 21
610.79640213
  0
LINE
  8
1
 62
     4
 10
655.88260371
 20
618.63185600
 11
661.53338618
 21
624.28263847
  0
LINE
  8
1
 62
     4
 10
688.85711673
 20
651.60636902
 11
698.00104523
 21
660.75029752
  0
LINE
  8
1
 62
     4
 10
706.74166499
 20
669.49091728
 11
711.45388114
 21
674.20313343
  0
LINE
  8
1
 62
     4
 10
642.45189510
 20
606.89820366
 11
647.80180896
 21
612.24811753
  0
LINE
  8
1
 62
     4
 10
655.75735173
 20
620.20366030
 11
661.50727118
 21
625.95357975
  0
LINE
  8
1
 62
     4
 10
686.05660586
 20
650.50291442
 11
695.96417444
 21
660.41048301
  0
LINE
  8
1
 62
     4
 10
705.19861789
 20
669.64492646
 11
710.04125847
 21
674.48756703
  0
LINE
  8
1
 62
     4
 10
642.19871857
 20
608.34208341
 11
647.59510796
 21
613.73847280
  0
LINE
  8
1
 62
     4
 10
655.68383855
 20
621.82720339
 11
661.66783837
 21
627.81120321
  0
LINE
  8
1
 62
     4
 10
683.02195021
 20
649.16531505
 11
693.80657474
 21
659.94993958
  0
LINE
  8
1
 62
     4
 10
703.60042256
 20
669.74378740
 11
708.59737872
 21
674.74074356
  0
LINE
  8
1
 62
     4
 10
641.97851308
 20
609.81893420
 11
647.41118873
 21
615.25160984
  0
LINE
  8
1
 62
     4
 10
655.68289653
 20
623.52331764
 11
662.15969811
 21
630.00011922
  0
LINE
  8
1
 62
     4
 10
679.61080416
 20
647.45122527
 11
691.52489037
 21
659.36531149
  0
LINE
  8
1
 62
     4
 10
701.92391289
 20
669.76433401
 11
707.12052793
 21
674.96094905
  0
LINE
  8
1
 62
     4
 10
641.79322636
 20
611.33070375
 11
647.29293560
 21
616.83041299
  0
LINE
  8
1
 62
     4
 10
655.79444436
 20
625.33192175
 11
663.35254289
 21
632.89002028
  0
LINE
  8
1
 62
     4
 10
675.45356161
 20
644.99103900
 11
689.08712891
 21
658.62460630
  0
LINE
  8
1
 62
     4
 10
700.18900230
 20
669.72647969
 11
705.60875838
 21
675.14623577
  0
LINE
  8
1
 62
     4
 10
641.64508467
 20
612.87961834
 11
647.20513309
 21
618.43966676
  0
LINE
  8
1
 62
     4
 10
656.07379981
 20
627.30833347
 11
686.45616306
 21
657.69069673
  0
LINE
  8
1
 62
     4
 10
698.38956237
 20
669.62409603
 11
704.05984379
 21
675.29437746
  0
LINE
  8
1
 62
     4
 10
641.53664960
 20
614.46823954
 11
647.16415029
 21
620.09574023
  0
LINE
  8
1
 62
     4
 10
656.57655468
 20
629.50814462
 11
683.59801987
 21
656.52960981
  0
LINE
  8
1
 62
     4
 10
696.54571036
 20
669.47730030
 11
702.47122259
 21
675.40281253
  0
LINE
  8
1
 62
     4
 10
641.47089089
 20
616.09953710
 11
647.20461808
 21
621.83326429
  0
LINE
  8
1
 62
     4
 10
657.38545647
 20
632.01410268
 11
680.38814305
 21
655.01678927
  0
LINE
  8
1
 62
     4
 10
694.60061031
 20
669.22925652
 11
700.83992502
 21
675.46857124
  0
LINE
  8
1
 62
     4
 10
641.45128139
 20
617.77698388
 11
647.30948534
 21
623.63518783
  0
LINE
  8
1
 62
     4
 10
658.75952554
 20
635.08522803
 11
676.62315327
 21
652.94885576
  0
LINE
  8
1
 62
     4
 10
692.57793512
 20
668.90363761
 11
699.16247825
 21
675.48818074
  0
LINE
  8
1
 62
     4
 10
641.48192289
 20
619.50468166
 11
647.49690752
 21
625.51966629
  0
LINE
  8
1
 62
     4
 10
661.40630886
 20
639.42906762
 11
671.53781120
 21
649.56056997
  0
LINE
  8
1
 62
     4
 10
690.45842845
 20
668.48118721
 11
697.43478047
 21
675.45753924
  0
LINE
  8
1
 62
     4
 10
641.56771610
 20
621.28753114
 11
647.80657586
 21
627.52639090
  0
LINE
  8
1
 62
     4
 10
688.22177688
 20
667.94159192
 11
695.65193099
 21
675.37174603
  0
LINE
  8
1
 62
     4
 10
641.71459538
 20
623.13146669
 11
648.25636125
 21
629.67323257
  0
LINE
  8
1
 62
     4
 10
685.84081907
 20
667.25769038
 11
693.80799544
 21
675.22486675
  0
LINE
  8
1
 62
     4
 10
641.92986132
 20
625.04378891
 11
648.86852340
 21
631.98245099
  0
LINE
  8
1
 62
     4
 10
683.27804788
 20
666.39197547
 11
691.89567322
 21
675.00960081
  0
LINE
  8
1
 62
     4
 10
642.22266627
 20
627.03365013
 11
649.69436973
 21
634.50535359
  0
LINE
  8
1
 62
     4
 10
680.47974270
 20
665.29072656
 11
689.90581200
 21
674.71679586
  0
LINE
  8
1
 62
     4
 10
642.60474896
 20
629.11278910
 11
650.83686502
 21
637.34490515
  0
LINE
  8
1
 62
     4
 10
677.36561906
 20
663.87365920
 11
687.82667303
 21
674.33471316
  0
LINE
  8
1
 62
     4
 10
643.09159565
 20
631.29669206
 11
652.50401372
 21
640.70911013
  0
LINE
  8
1
 62
     4
 10
673.75813130
 20
661.96322771
 11
685.64277007
 21
673.84786648
  0
LINE
  8
1
 62
     4
 10
643.70437658
 20
633.60652926
 11
655.20746823
 21
645.10962092
  0
LINE
  8
1
 62
     4
 10
669.05739515
 20
658.95954784
 11
683.33293286
 21
673.23508555
  0
LINE
  8
1
 62
     4
 10
644.47340640
 20
636.07261536
 11
680.86684677
 21
672.46605573
  0
LINE
  8
1
 62
     4
 10
645.44491890
 20
638.74118414
 11
678.19827799
 21
671.49454322
  0
LINE
  8
1
 62
     4
 10
646.69614347
 20
641.68946498
 11
675.24999715
 21
670.24331866
  0
LINE
  8
1
 62
     4
 10
648.37611048
 20
645.06648827
 11
671.87297386
 21
668.56335165
  0
LINE
  8
1
 62
     4
 10
650.86289009
 20
649.25032416
 11
667.68913797
 21
666.07657203
  0
LINE
  8
1
 62
     4
 10
675.22271952
 20
564.99855199
 11
679.43185887
 21
569.20769134
  0
LINE
  8
1
 62
     4
 10
685.63557627
 20
575.41140874
 11
690.06996484
 21
579.84579732
  0
LINE
  8
1
 62
     4
 10
699.62387218
 20
589.39970465
 11
707.50148420
 21
597.27731667
  0
LINE
  8
1
 62
     4
 10
722.07116319
 20
611.84699566
 11
727.65548749
 21
617.43131996
  0
LINE
  8
1
 62
     4
 10
734.57503931
 20
624.35087179
 11
739.75423032
 21
629.53006279
  0
LINE
  8
1
 62
     4
 10
746.91024459
 20
636.68607706
 11
751.94091014
 21
641.71674261
  0
LINE
  8
1
 62
     4
 10
676.39739428
 20
564.47617048
 11
680.61388650
 21
568.69266269
  0
LINE
  8
1
 62
     4
 10
686.92598040
 20
575.00475660
 11
691.71949868
 21
579.79827488
  0
LINE
  8
1
 62
     4
 10
701.85086061
 20
589.92963681
 11
709.69501640
 21
597.77379259
  0
LINE
  8
1
 62
     4
 10
722.26281504
 20
610.34159123
 11
727.95501780
 21
616.03379400
  0
LINE
  8
1
 62
     4
 10
734.96724503
 20
623.04602123
 11
740.19454644
 21
628.27332264
  0
LINE
  8
1
 62
     4
 10
747.40190709
 20
635.48068328
 11
752.46329165
 21
640.54206785
  0
LINE
  8
1
 62
     4
 10
677.59399113
 20
563.97571105
 11
681.83401678
 21
568.21573670
  0
LINE
  8
1
 62
     4
 10
688.27072753
 20
574.65244745
 11
693.48813935
 21
579.86985927
  0
LINE
  8
1
 62
     4
 10
704.17425633
 20
590.55597625
 11
711.95905536
 21
598.34077528
  0
LINE
  8
1
 62
     4
 10
722.44035945
 20
608.82207937
 11
728.23175281
 21
614.61347273
  0
LINE
  8
1
 62
     4
 10
735.33495739
 20
621.71667731
 11
740.60875718
 21
626.99047710
  0
LINE
  8
1
 62
     4
 10
747.87842414
 20
634.26014406
 11
752.96375108
 21
639.34547100
  0
LINE
  8
1
 62
     4
 10
678.81312353
 20
563.49778718
 11
683.07102838
 21
567.75569203
  0
LINE
  8
1
 62
     4
 10
689.67015949
 20
574.35482314
 11
695.35885685
 21
580.04352050
  0
LINE
  8
1
 62
     4
 10
706.58063833
 20
591.26530197
 11
714.31096538
 21
598.99562903
  0
LINE
  8
1
 62
     4
 10
722.60094630
 20
607.28560994
 11
728.48346602
 21
613.16812966
  0
LINE
  8
1
 62
     4
 10
735.67627388
 20
620.36093752
 11
740.99494171
 21
625.67960536
  0
LINE
  8
1
 62
     4
 10
748.32664914
 20
633.01131279
 11
753.44167495
 21
638.12633859
  0
LINE
  8
1
 62
     4
 10
680.05547012
 20
563.04307749
 11
684.35797872
 21
567.34558610
  0
LINE
  8
1
 62
     4
 10
691.13426665
 20
574.12187402
 11
697.32347921
 21
580.31108659
  0
LINE
  8
1
 62
     4
 10
709.10336454
 20
592.09097192
 11
716.82187441
 21
599.80948178
  0
LINE
  8
1
 62
     4
 10
722.73366081
 20
605.72126818
 11
728.70525099
 21
611.69285836
  0
LINE
  8
1
 62
     4
 10
735.99510435
 20
618.98271172
 11
741.36335009
 21
624.35095746
  0
LINE
  8
1
 62
     4
 10
748.75515017
 20
631.74275755
 11
753.89638464
 21
636.88399201
  0
LINE
  8
1
 62
     4
 10
681.32178223
 20
562.61233333
 11
685.65685850
 21
566.94740959
  0
LINE
  8
1
 62
     4
 10
692.70584148
 20
573.99639258
 11
699.37757792
 21
580.66812902
  0
LINE
  8
1
 62
     4
 10
711.74994387
 20
593.04049496
 11
719.72222253
 21
601.01277363
  0
LINE
  8
1
 62
     4
 10
722.81121695
 20
604.10176805
 11
728.88763667
 21
610.17818777
  0
LINE
  8
1
 62
     4
 10
736.28839713
 20
617.57894823
 11
741.69454057
 21
622.98509166
  0
LINE
  8
1
 62
     4
 10
749.15758820
 20
630.44813930
 11
754.32712880
 21
635.61767990
  0
LINE
  8
1
 62
     4
 10
682.61289283
 20
562.20638766
 11
687.01790705
 21
566.61140187
  0
LINE
  8
1
 62
     4
 10
694.36878166
 20
573.96227649
 11
701.54894312
 21
581.14243794
  0
LINE
  8
1
 62
     4
 10
714.59071494
 20
594.18420976
 11
729.01900897
 21
608.61250379
  0
LINE
  8
1
 62
     4
 10
736.54871636
 20
616.14221118
 11
741.99704814
 21
621.59054296
  0
LINE
  8
1
 62
     4
 10
749.53299845
 20
629.12649327
 11
754.73307447
 21
634.32656929
  0
LINE
  8
1
 62
     4
 10
683.92972703
 20
561.82616558
 11
688.39952698
 21
566.29596553
  0
LINE
  8
1
 62
     4
 10
696.11588345
 20
574.01232200
 11
703.81444961
 21
581.71088816
  0
LINE
  8
1
 62
     4
 10
717.71772662
 20
595.61416517
 11
729.06872585
 21
606.96516440
  0
LINE
  8
1
 62
     4
 10
736.76892006
 20
614.66535860
 11
742.27380202
 21
620.17024057
  0
LINE
  8
1
 62
     4
 10
749.88678855
 20
627.78322710
 11
755.11329655
 21
633.00973510
  0
LINE
  8
1
 62
     4
 10
685.27331450
 20
561.47269678
 11
689.83150972
 21
566.03089199
  0
LINE
  8
1
 62
     4
 10
697.91721407
 20
574.11659634
 11
706.20888420
 21
582.40826648
  0
LINE
  8
1
 62
     4
 10
721.47841594
 20
597.67779822
 11
728.62557714
 21
604.82495941
  0
LINE
  8
1
 62
     4
 10
736.94826849
 20
613.14765076
 11
742.50756595
 21
618.70694822
  0
LINE
  8
1
 62
     4
 10
750.20265349
 20
626.40203577
 11
755.46676535
 21
631.66614762
  0
LINE
  8
1
 62
     4
 10
686.64480448
 20
561.14713048
 11
691.31064154
 21
565.81296754
  0
LINE
  8
1
 62
     4
 10
699.82863045
 20
574.33095645
 11
708.75223385
 21
583.25455984
  0
LINE
  8
1
 62
     4
 10
737.07731198
 20
611.57963798
 11
742.69862020
 21
617.20094620
  0
LINE
  8
1
 62
     4
 10
750.50432674
 20
625.00665274
 11
755.79233165
 21
630.29465765
  0
LINE
  8
1
 62
     4
 10
688.04548365
 20
560.85075337
 11
692.82113424
 21
565.62640396
  0
LINE
  8
1
 62
     4
 10
701.86556750
 20
574.67083722
 11
711.45389582
 21
584.25916554
  0
LINE
  8
1
 62
     4
 10
737.14234641
 20
609.94761613
 11
742.84914384
 21
615.65441356
  0
LINE
  8
1
 62
     4
 10
750.75239824
 20
623.55766797
 11
756.08870876
 21
628.89397848
  0
LINE
  8
1
 62
     4
 10
689.47679790
 20
560.58501135
 11
694.41710388
 21
565.52531733
  0
LINE
  8
1
 62
     4
 10
703.97953785
 20
575.08775130
 11
714.39403652
 21
585.50224997
  0
LINE
  8
1
 62
     4
 10
737.08456779
 20
608.19278124
 11
742.95155644
 21
614.05976989
  0
LINE
  8
1
 62
     4
 10
750.98348140
 20
622.09169485
 11
756.35445078
 21
627.46266423
  0
LINE
  8
1
 62
     4
 10
690.94037898
 20
560.35153615
 11
696.05541873
 21
565.46657590
  0
LINE
  8
1
 62
     4
 10
706.21363924
 20
575.62479642
 11
717.63773024
 21
587.04888742
  0
LINE
  8
1
 62
     4
 10
736.74220320
 20
606.15336037
 11
742.99218470
 21
612.40334188
  0
LINE
  8
1
 62
     4
 10
751.16741188
 20
620.57856906
 11
756.58792598
 21
625.99908315
  0
LINE
  8
1
 62
     4
 10
692.43807729
 20
560.15217818
 11
697.76805218
 21
565.48215307
  0
LINE
  8
1
 62
     4
 10
708.58647458
 20
576.30057548
 11
721.42308444
 21
589.13718534
  0
LINE
  8
1
 62
     4
 10
735.91077665
 20
603.62487755
 11
742.92593161
 21
610.64003251
  0
LINE
  8
1
 62
     4
 10
751.31250701
 20
619.02660791
 11
756.78728394
 21
624.50138484
  0
LINE
  8
1
 62
     4
 10
693.97200279
 20
559.98904741
 11
699.54757347
 21
565.56461810
  0
LINE
  8
1
 62
     4
 10
711.12271274
 20
577.13975737
 11
726.65195458
 21
592.66899920
  0
LINE
  8
1
 62
     4
 10
733.63108600
 20
599.64813062
 11
742.71807564
 21
608.73512027
  0
LINE
  8
1
 62
     4
 10
751.42878928
 20
617.44583391
 11
756.95041472
 21
622.96745934
  0
LINE
  8
1
 62
     4
 10
695.54457664
 20
559.86456499
 11
701.36633547
 21
565.68632382
  0
LINE
  8
1
 62
     4
 10
713.88404696
 20
578.20403531
 11
742.32460333
 21
606.64459167
  0
LINE
  8
1
 62
     4
 10
751.47116077
 20
615.79114912
 11
757.07489714
 21
621.39488549
  0
LINE
  8
1
 62
     4
 10
697.15859707
 20
559.78152914
 11
703.26319358
 21
565.88612565
  0
LINE
  8
1
 62
     4
 10
716.93860674
 20
579.56153881
 11
741.63476854
 21
604.25770061
  0
LINE
  8
1
 62
     4
 10
751.46841954
 20
614.09135161
 11
757.15793299
 21
619.78086506
  0
LINE
  8
1
 62
     4
 10
698.81732468
 20
559.74320048
 11
705.24878872
 21
566.17466452
  0
LINE
  8
1
 62
     4
 10
720.44516678
 20
581.37104258
 11
740.53291091
 21
601.45878670
  0
LINE
  8
1
 62
     4
 10
751.41083587
 20
612.33671167
 11
757.19626165
 21
618.12213745
  0
LINE
  8
1
 62
     4
 10
700.52459481
 20
559.75341434
 11
707.34158306
 21
566.57040258
  0
LINE
  8
1
 62
     4
 10
724.81000815
 20
584.03882768
 11
738.58258936
 21
597.81140888
  0
LINE
  8
1
 62
     4
 10
751.23743582
 20
610.46625535
 11
757.18604779
 21
616.41486732
  0
LINE
  8
1
 62
     4
 10
702.28496806
 20
559.81673131
 11
709.53968816
 21
567.07145141
  0
LINE
  8
1
 62
     4
 10
750.96781691
 20
608.49958016
 11
757.12273082
 21
614.65449407
  0
LINE
  8
1
 62
     4
 10
704.10393624
 20
559.93864322
 11
711.86561461
 21
567.70032158
  0
LINE
  8
1
 62
     4
 10
750.58065916
 20
606.41536613
 11
757.00081891
 21
612.83552589
  0
LINE
  8
1
 62
     4
 10
705.98821121
 20
560.12586191
 11
714.34952935
 21
568.48718005
  0
LINE
  8
1
 62
     4
 10
750.04220273
 20
604.17985343
 11
756.81360021
 21
610.95125091
  0
LINE
  8
1
 62
     4
 10
707.94614118
 20
560.38673561
 11
717.03316396
 21
569.47375838
  0
LINE
  8
1
 62
     4
 10
749.30474662
 20
601.74534104
 11
756.55272652
 21
608.99332095
  0
LINE
  8
1
 62
     4
 10
709.98833137
 20
560.73186952
 11
719.98118298
 21
570.72472113
  0
LINE
  8
1
 62
     4
 10
748.29811980
 20
599.04165795
 11
756.20759261
 21
606.95113076
  0
LINE
  8
1
 62
     4
 10
712.12860709
 20
561.17508897
 11
723.38834171
 21
572.43482359
  0
LINE
  8
1
 62
     4
 10
746.91399427
 20
595.96047614
 11
755.76437316
 21
604.81085504
  0
LINE
  8
1
 62
     4
 10
714.38558385
 20
561.73500946
 11
727.52576134
 21
574.87518694
  0
LINE
  8
1
 62
     4
 10
744.73113008
 20
592.08055569
 11
755.20445267
 21
602.55387827
  0
LINE
  8
1
 62
     4
 10
716.78539152
 20
562.43776084
 11
734.29541535
 21
579.94778468
  0
LINE
  8
1
 62
     4
 10
740.02501952
 20
585.67738885
 11
754.50170129
 21
600.15407061
  0
LINE
  8
1
 62
     4
 10
719.36680086
 20
563.32211391
 11
753.61734822
 21
597.57266127
  0
LINE
  8
1
 62
     4
 10
722.19200567
 20
564.45026245
 11
752.48919968
 21
594.74745646
  0
LINE
  8
1
 62
     4
 10
725.37332089
 20
565.93452139
 11
751.00494074
 21
591.56614124
  0
LINE
  8
1
 62
     4
 10
729.15990734
 20
568.02405157
 11
748.91541056
 21
587.77955479
  0
LINE
  8
1
 62
     4
 10
734.45894380
 20
571.62603176
 11
745.31343037
 21
582.48051832
  0
ENDBLK
  0
ENDSEC
  0
SECTION
  2
ENTITIES
  0
INSERT
  8
0
  2
H-395-8022-60-17-2D_00001
 10
0.00000000
 20
0.00000000
  0
INSERT
  8
0
  2
BEM_________________00005
 10
695.72287613
 20
3050.74224197
  0
INSERT
  8
0
  2
TEXT________________00006
 10
233.65327991
 20
942.07146330
  0
INSERT
  8
0
  2
ANS3D01_____________00008
 10
0.00000000
 20
0.00000000
  0
INSERT
  8
0
  2
SEITENWAND_SA_______00011
 10
1722.80186432
 20
1293.64212086
  0
INSERT
  8
0
  2
DINA4H______________00012
 10
59.99670410
 20
3504.00000000
  0
ENDSEC
  0
EOF
